  0
SECTION
  2
HEADER
  9
$ACADVER
  1
AC1015
  9
$ACADMAINTVER
 70
     6
  9
$DWGCODEPAGE
  3
ANSI_1254
  9
$INSBASE
 10
0.0
 20
0.0
 30
0.0
  9
$EXTMIN
 10
0.0
 20
0.0
 30
0.0
  9
$EXTMAX
 10
279.4
 20
215.9
 30
0.0
  9
$LIMMIN
 10
0.0
 20
0.0
  9
$LIMMAX
 10
279.4
 20
215.9
  9
$ORTHOMODE
 70
     0
  9
$REGENMODE
 70
     1
  9
$FILLMODE
 70
     1
  9
$QTEXTMODE
 70
     0
  9
$MIRRTEXT
 70
     1
  9
$LTSCALE
 40
1.0
  9
$ATTMODE
 70
     1
  9
$TEXTSIZE
 40
3.5
  9
$TRACEWID
 40
1.0
  9
$TEXTSTYLE
  7
Standard
  9
$CLAYER
  8
0
  9
$CELTYPE
  6
ByLayer
  9
$CECOLOR
 62
   256
  9
$CELTSCALE
 40
1.0
  9
$DISPSILH
 70
     0
  9
$DIMSCALE
 40
1.0
  9
$DIMASZ
 40
3.5
  9
$DIMEXO
 40
1.0
  9
$DIMDLI
 40
3.75
  9
$DIMRND
 40
0.0
  9
$DIMDLE
 40
0.0
  9
$DIMEXE
 40
1.0
  9
$DIMTP
 40
0.0
  9
$DIMTM
 40
0.0
  9
$DIMTXT
 40
2.8222222222
  9
$DIMCEN
 40
2.5
  9
$DIMTSZ
 40
0.0
  9
$DIMTOL
 70
     0
  9
$DIMLIM
 70
     0
  9
$DIMTIH
 70
     1
  9
$DIMTOH
 70
     1
  9
$DIMSE1
 70
     0
  9
$DIMSE2
 70
     0
  9
$DIMTAD
 70
     1
  9
$DIMZIN
 70
     0
  9
$DIMBLK
  1

  9
$DIMASO
 70
     1
  9
$DIMSHO
 70
     1
  9
$DIMPOST
  1

  9
$DIMAPOST
  1

  9
$DIMALT
 70
     0
  9
$DIMALTD
 70
     3
  9
$DIMALTF
 40
0.0393700787
  9
$DIMLFAC
 40
1.0
  9
$DIMTOFL
 70
     1
  9
$DIMTVP
 40
0.0
  9
$DIMTIX
 70
     0
  9
$DIMSOXD
 70
     0
  9
$DIMSAH
 70
     0
  9
$DIMBLK1
  1

  9
$DIMBLK2
  1

  9
$DIMSTYLE
  2
ISO-25
  9
$DIMCLRD
 70
     0
  9
$DIMCLRE
 70
     0
  9
$DIMCLRT
 70
     0
  9
$DIMTFAC
 40
1.0
  9
$DIMGAP
 40
1.524
  9
$DIMJUST
 70
     0
  9
$DIMSD1
 70
     0
  9
$DIMSD2
 70
     0
  9
$DIMTOLJ
 70
     0
  9
$DIMTZIN
 70
     0
  9
$DIMALTZ
 70
     0
  9
$DIMALTTZ
 70
     0
  9
$DIMUPT
 70
     0
  9
$DIMDEC
 70
     2
  9
$DIMTDEC
 70
     2
  9
$DIMALTU
 70
     2
  9
$DIMALTTD
 70
     3
  9
$DIMTXSTY
  7
Standard
  9
$DIMAUNIT
 70
     0
  9
$DIMADEC
 70
     2
  9
$DIMALTRND
 40
0.0
  9
$DIMAZIN
 70
     0
  9
$DIMDSEP
 70
    44
  9
$DIMATFIT
 70
     3
  9
$DIMFRAC
 70
     0
  9
$DIMLDRBLK
  1

  9
$DIMLUNIT
 70
     2
  9
$DIMLWD
 70
    -2
  9
$DIMLWE
 70
    -2
  9
$DIMTMOVE
 70
     0
  9
$LUNITS
 70
     2
  9
$LUPREC
 70
     2
  9
$SKETCHINC
 40
1.0
  9
$FILLETRAD
 40
10.0
  9
$AUNITS
 70
     0
  9
$AUPREC
 70
     2
  9
$MENU
  1
.
  9
$ELEVATION
 40
0.0
  9
$PELEVATION
 40
0.0
  9
$THICKNESS
 40
0.0
  9
$LIMCHECK
 70
     0
  9
$CHAMFERA
 40
0.0
  9
$CHAMFERB
 40
0.0
  9
$CHAMFERC
 40
0.0
  9
$CHAMFERD
 40
0.0
  9
$SKPOLY
 70
     0
  9
$TDCREATE
 40
2460087.497630023
  9
$TDUCREATE
 40
2460087.372630023
  9
$TDUPDATE
 40
2460087.497630266
  9
$TDUUPDATE
 40
2460087.372630266
  9
$TDINDWG
 40
0.0000000116
  9
$TDUSRTIMER
 40
0.0000000116
  9
$USRTIMER
 70
     1
  9
$ANGBASE
 50
0.0
  9
$ANGDIR
 70
     0
  9
$PDMODE
 70
     0
  9
$PDSIZE
 40
-1.0
  9
$PLINEWID
 40
0.0
  9
$SPLFRAME
 70
     0
  9
$SPLINETYPE
 70
     6
  9
$SPLINESEGS
 70
     8
  9
$HANDSEED
  5
124
  9
$SURFTAB1
 70
     6
  9
$SURFTAB2
 70
     6
  9
$SURFTYPE
 70
     6
  9
$SURFU
 70
     6
  9
$SURFV
 70
     6
  9
$UCSBASE
  2

  9
$UCSNAME
  2

  9
$UCSORG
 10
0.0
 20
0.0
 30
0.0
  9
$UCSXDIR
 10
1.0
 20
0.0
 30
0.0
  9
$UCSYDIR
 10
0.0
 20
1.0
 30
0.0
  9
$UCSORTHOREF
  2

  9
$UCSORTHOVIEW
 70
     0
  9
$UCSORGTOP
 10
0.0
 20
0.0
 30
0.0
  9
$UCSORGBOTTOM
 10
0.0
 20
0.0
 30
0.0
  9
$UCSORGLEFT
 10
0.0
 20
0.0
 30
0.0
  9
$UCSORGRIGHT
 10
0.0
 20
0.0
 30
0.0
  9
$UCSORGFRONT
 10
0.0
 20
0.0
 30
0.0
  9
$UCSORGBACK
 10
0.0
 20
0.0
 30
0.0
  9
$PUCSBASE
  2

  9
$PUCSNAME
  2

  9
$PUCSORG
 10
0.0
 20
0.0
 30
0.0
  9
$PUCSXDIR
 10
1.0
 20
0.0
 30
0.0
  9
$PUCSYDIR
 10
0.0
 20
1.0
 30
0.0
  9
$PUCSORTHOREF
  2

  9
$PUCSORTHOVIEW
 70
     0
  9
$PUCSORGTOP
 10
0.0
 20
0.0
 30
0.0
  9
$PUCSORGBOTTOM
 10
0.0
 20
0.0
 30
0.0
  9
$PUCSORGLEFT
 10
0.0
 20
0.0
 30
0.0
  9
$PUCSORGRIGHT
 10
0.0
 20
0.0
 30
0.0
  9
$PUCSORGFRONT
 10
0.0
 20
0.0
 30
0.0
  9
$PUCSORGBACK
 10
0.0
 20
0.0
 30
0.0
  9
$USERI1
 70
     0
  9
$USERI2
 70
     0
  9
$USERI3
 70
     0
  9
$USERI4
 70
     0
  9
$USERI5
 70
     0
  9
$USERR1
 40
0.0
  9
$USERR2
 40
0.0
  9
$USERR3
 40
0.0
  9
$USERR4
 40
0.0
  9
$USERR5
 40
0.0
  9
$WORLDVIEW
 70
     1
  9
$SHADEDGE
 70
     3
  9
$SHADEDIF
 70
    70
  9
$TILEMODE
 70
     1
  9
$MAXACTVP
 70
    64
  9
$PINSBASE
 10
0.0
 20
0.0
 30
0.0
  9
$PLIMCHECK
 70
     0
  9
$PEXTMIN
 10
1.0000000000E+20
 20
1.0000000000E+20
 30
1.0000000000E+20
  9
$PEXTMAX
 10
-1.0000000000E+20
 20
-1.0000000000E+20
 30
-1.0000000000E+20
  9
$PLIMMIN
 10
0.0
 20
0.0
  9
$PLIMMAX
 10
420.0
 20
297.0
  9
$UNITMODE
 70
     0
  9
$VISRETAIN
 70
     1
  9
$PLINEGEN
 70
     0
  9
$PSLTSCALE
 70
     1
  9
$TREEDEPTH
 70
  3020
  9
$CMLSTYLE
  2
Standard
  9
$CMLJUST
 70
     0
  9
$CMLSCALE
 40
20.0
  9
$PROXYGRAPHICS
 70
     1
  9
$MEASUREMENT
 70
     1
  9
$CELWEIGHT
370
    -1
  9
$ENDCAPS
280
     0
  9
$JOINSTYLE
280
     0
  9
$LWDISPLAY
290
     1
  9
$INSUNITS
 70
     4
  9
$HYPERLINKBASE
  1

  9
$STYLESHEET
  1

  9
$XEDIT
290
     1
  9
$CEPSNTYPE
380
     0
  9
$PSTYLEMODE
290
     1
  9
$FINGERPRINTGUID
  2
{2cbe537c-82f9-4838-ae91-c0e82699447c}
  9
$VERSIONGUID
  2
{FAEB1C32-E019-11D5-929B-00C0DF256EC4}
  9
$EXTNAMES
290
     1
  9
$PSVPSCALE
 40
0.0
  9
$OLESTARTUP
290
     0
  0
ENDSEC
  0
SECTION
  2
CLASSES
  0
CLASS
  1
ACDBDICTIONARYWDFLT
  2
AcDbDictionaryWithDefault
  3
ObjectDBX Classes
 90
        0
280
     0
281
     0
  0
CLASS
  1
VISUALSTYLE
  2
AcDbVisualStyle
  3
ObjectDBX Classes
 90
     4095
280
     0
281
     0
  0
CLASS
  1
MATERIAL
  2
AcDbMaterial
  3
ObjectDBX Classes
 90
     1153
280
     0
281
     0
  0
CLASS
  1
SCALE
  2
AcDbScale
  3
ObjectDBX Classes
 90
     1153
280
     0
281
     0
  0
CLASS
  1
TABLESTYLE
  2
AcDbTableStyle
  3
ObjectDBX Classes
 90
     4095
280
     0
281
     0
  0
CLASS
  1
MLEADERSTYLE
  2
AcDbMLeaderStyle
  3
ACDB_MLEADERSTYLE_CLASS
 90
     4095
280
     0
281
     0
  0
CLASS
  1
SUN
  2
AcDbSun
  3
SCENEOE
 90
     1153
280
     0
281
     0
  0
CLASS
  1
ACDBPLACEHOLDER
  2
AcDbPlaceHolder
  3
ObjectDBX Classes
 90
        0
280
     0
281
     0
  0
CLASS
  1
LAYOUT
  2
AcDbLayout
  3
ObjectDBX Classes
 90
        0
280
     0
281
     0
  0
ENDSEC
  0
SECTION
  2
TABLES
  0
TABLE
  2
VPORT
  5
8
330
0
100
AcDbSymbolTable
 70
     1
  0
VPORT
  5
29
330
8
100
AcDbSymbolTableRecord
100
AcDbViewportTableRecord
  2
*Active
 70
     0
 10
0.0
 20
0.0
 11
1.0
 21
1.0
 12
139.7
 22
107.95
 13
0.0
 23
0.0
 14
10.0
 24
10.0
 15
10.0
 25
10.0
 16
0.0
 26
0.0
 36
1.0
 17
0.0
 27
0.0
 37
0.0
 40
215.9
 41
1.2941176471
 42
50.0
 43
0.0
 44
0.0
 50
0.0
 51
0.0
 71
     0
 72
  2000
 73
     1
 74
     3
 75
     0
 76
     0
 77
     0
 78
     0
281
     0
 65
     1
110
0.0
120
0.0
130
0.0
111
1.0
121
0.0
131
0.0
112
0.0
122
1.0
132
0.0
 79
     0
146
0.0
  0
ENDTAB
  0
TABLE
  2
LTYPE
  5
5
330
0
100
AcDbSymbolTable
 70
     6
  0
LTYPE
  5
14
330
5
100
AcDbSymbolTableRecord
100
AcDbLinetypeTableRecord
  2
ByBlock
 70
     0
  3

 72
    65
 73
     0
 40
0.0
  0
LTYPE
  5
15
330
5
100
AcDbSymbolTableRecord
100
AcDbLinetypeTableRecord
  2
ByLayer
 70
     0
  3

 72
    65
 73
     0
 40
0.0
  0
LTYPE
  5
16
330
5
100
AcDbSymbolTableRecord
100
AcDbLinetypeTableRecord
  2
Continuous
 70
     0
  3
Solid line
 72
    65
 73
     0
 40
0.0
  0
LTYPE
  5
6E
330
5
100
AcDbSymbolTableRecord
100
AcDbLinetypeTableRecord
  2
HIDDEN
 70
     0
  3
Hidden __ __ __ __ __ __ __ __ __ __ __ __ __ __
 72
    65
 73
     2
 40
1.905
 49
1.27
 74
     0
 49
-0.635
 74
     0
  0
LTYPE
  5
6F
330
5
100
AcDbSymbolTableRecord
100
AcDbLinetypeTableRecord
  2
PHANTOM
 70
     0
  3
Phantom ______  __  __  ______  __  __  ______
 72
    65
 73
     6
 40
12.7
 49
6.35
 74
     0
 49
-1.27
 74
     0
 49
1.27
 74
     0
 49
-1.27
 74
     0
 49
1.27
 74
     0
 49
-1.27
 74
     0
  0
LTYPE
  5
70
330
5
100
AcDbSymbolTableRecord
100
AcDbLinetypeTableRecord
  2
CENTER
 70
     0
  3
Center ____ _ ____ _ ____ _ ____ _ ____ _ ____
 72
    65
 73
     4
 40
10.16
 49
6.35
 74
     0
 49
-1.27
 74
     0
 49
1.27
 74
     0
 49
-1.27
 74
     0
  0
LTYPE
  5
71
330
5
100
AcDbSymbolTableRecord
100
AcDbLinetypeTableRecord
  2
CENTERX2
 70
     0
  3
Center (2x) ________  __  ________  __  _____
 72
    65
 73
     4
 40
20.32
 49
12.7
 74
     0
 49
-2.54
 74
     0
 49
2.54
 74
     0
 49
-2.54
 74
     0
  0
LTYPE
  5
72
330
5
100
AcDbSymbolTableRecord
100
AcDbLinetypeTableRecord
  2
DOT2
 70
     0
  3
Dot (.5x) ........................................
 72
    65
 73
     2
 40
0.635
 49
0.0
 74
     0
 49
-0.635
 74
     0
  0
ENDTAB
  0
TABLE
  2
LAYER
  5
2
330
0
100
AcDbSymbolTable
 70
    17
  0
LAYER
  5
10
330
2
100
AcDbSymbolTableRecord
100
AcDbLayerTableRecord
  2
0
 70
     0
 62
     7
  6
Continuous
370
    -3
390
F
  0
LAYER
  5
73
330
2
100
AcDbSymbolTableRecord
100
AcDbLayerTableRecord
  2
FORMAT
 70
     0
 62
     7
  6
Continuous
370
    -3
390
F
  0
LAYER
  5
74
330
2
100
AcDbSymbolTableRecord
100
AcDbLayerTableRecord
  2
YARDIMCI_GEOMETRI
 70
     0
 62
    -6
  6
Continuous
290
     0
370
    -3
390
F
  0
LAYER
  5
75
330
2
100
AcDbSymbolTableRecord
100
AcDbLayerTableRecord
  2
SAYFA_CERCEVESI
 70
     0
 62
     7
  6
Continuous
370
    25
390
F
  0
LAYER
  5
76
330
2
100
AcDbSymbolTableRecord
100
AcDbLayerTableRecord
  2
ANTET
 70
     0
 62
     7
  6
Continuous
370
    -3
390
F
  0
LAYER
  5
77
330
2
100
AcDbSymbolTableRecord
100
AcDbLayerTableRecord
  2
OLCU
 70
     0
 62
   150
  6
Continuous
370
    -3
390
F
  0
LAYER
  5
78
330
2
100
AcDbSymbolTableRecord
100
AcDbLayerTableRecord
  2
METIN
 70
     0
 62
    96
  6
Continuous
370
    -3
390
F
  0
LAYER
  5
79
330
2
100
AcDbSymbolTableRecord
100
AcDbLayerTableRecord
  2
BALON
 70
     0
 62
     5
  6
Continuous
370
    -3
390
F
  0
LAYER
  5
7A
330
2
100
AcDbSymbolTableRecord
100
AcDbLayerTableRecord
  2
VURGU
 70
     0
 62
     7
  6
Continuous
370
    -3
390
F
  0
LAYER
  5
7B
330
2
100
AcDbSymbolTableRecord
100
AcDbLayerTableRecord
  2
SILIK
 70
     0
 62
     7
  6
Continuous
370
    -3
390
F
  0
LAYER
  5
7C
330
2
100
AcDbSymbolTableRecord
100
AcDbLayerTableRecord
  2
MODEL
 70
     0
 62
     7
  6
Continuous
370
    -3
390
F
  0
LAYER
  5
7D
330
2
100
AcDbSymbolTableRecord
100
AcDbLayerTableRecord
  2
DETAYLANDıRMA
 70
     0
 62
   190
  6
Continuous
370
    -3
390
F
  0
LAYER
  5
7E
330
2
100
AcDbSymbolTableRecord
100
AcDbLayerTableRecord
  2
TOLERANS
 70
     0
 62
   230
  6
Continuous
370
    -3
390
F
  0
LAYER
  5
7F
330
2
100
AcDbSymbolTableRecord
100
AcDbLayerTableRecord
  2
MERKEZ_CIZGILERI
 70
     0
 62
    30
  6
Continuous
370
    -3
390
F
  0
LAYER
  5
80
330
2
100
AcDbSymbolTableRecord
100
AcDbLayerTableRecord
  2
KESIT-DETAY_CIZGILERI
 70
     0
 62
     7
  6
Continuous
370
    -3
390
F
  0
LAYER
  5
81
330
2
100
AcDbSymbolTableRecord
100
AcDbLayerTableRecord
  2
\U+041E\U+0421\U+0415\U+0412\U+042B\U+0415
 70
     0
 62
     7
  6
Continuous
370
    -3
390
F
  0
LAYER
  5
82
330
2
100
AcDbSymbolTableRecord
100
AcDbLayerTableRecord
  2
\U+0412\U+041E\U+0414\U+042F\U+041D\U+042B\U+0415_\U+0417\U+041D\U+0410\U+041A\U+0418
 70
     0
 62
    11
  6
Continuous
370
    -3
390
F
  0
ENDTAB
  0
TABLE
  2
STYLE
  5
3
330
0
100
AcDbSymbolTable
 70
     1
  0
STYLE
  5
11
330
3
100
AcDbSymbolTableRecord
100
AcDbTextStyleTableRecord
  2
Standard
 70
     0
 40
0.0
 41
1.0
 50
0.0
 71
     0
 42
3.5
  3
txt
  4

  0
ENDTAB
  0
TABLE
  2
VIEW
  5
6
330
0
100
AcDbSymbolTable
 70
     0
  0
ENDTAB
  0
TABLE
  2
UCS
  5
7
330
0
100
AcDbSymbolTable
 70
     0
  0
ENDTAB
  0
TABLE
  2
APPID
  5
9
330
0
100
AcDbSymbolTable
 70
     1
  0
APPID
  5
12
330
9
100
AcDbSymbolTableRecord
100
AcDbRegAppTableRecord
  2
ACAD
 70
     0
  0
ENDTAB
  0
TABLE
  2
DIMSTYLE
  5
A
330
0
100
AcDbSymbolTable
 70
     1
100
AcDbDimStyleTable
  0
DIMSTYLE
105
27
330
A
100
AcDbSymbolTableRecord
100
AcDbDimStyleTableRecord
  2
ISO-25
 70
     0
 41
2.5
 42
0.625
 43
3.75
 44
1.25
 73
     0
 74
     0
 77
     1
 78
     8
140
2.5
141
2.5
143
0.0393700787
147
0.625
171
     3
172
     1
178
     0
271
     2
272
     2
274
     3
278
    44
283
     0
284
     8
340
11
  0
ENDTAB
  0
TABLE
  2
BLOCK_RECORD
  5
1
330
0
100
AcDbSymbolTable
 70
     3
  0
BLOCK_RECORD
  5
1F
330
1
100
AcDbSymbolTableRecord
100
AcDbBlockTableRecord
  2
*Model_Space
340
22
  0
BLOCK_RECORD
  5
1B
330
1
100
AcDbSymbolTableRecord
100
AcDbBlockTableRecord
  2
*Paper_Space
340
1E
  0
BLOCK_RECORD
  5
23
330
1
100
AcDbSymbolTableRecord
100
AcDbBlockTableRecord
  2
*Paper_Space0
340
26
  0
BLOCK_RECORD
  5
8C
330
1
100
AcDbSymbolTableRecord
100
AcDbBlockTableRecord
  2
SW_CENTERMARKSYMBOL_0
340
0
102
{BLKREFS
331
97
102
}
  0
BLOCK_RECORD
  5
103
330
1
100
AcDbSymbolTableRecord
100
AcDbBlockTableRecord
  2
SW_CENTERMARKSYMBOL_1
340
0
102
{BLKREFS
331
10E
102
}
  0
ENDTAB
  0
ENDSEC
  0
SECTION
  2
BLOCKS
  0
BLOCK
  5
20
330
1F
100
AcDbEntity
  8
0
100
AcDbBlockBegin
  2
*Model_Space
 70
     0
 10
0.0
 20
0.0
 30
0.0
  3
*Model_Space
  1

  0
ENDBLK
  5
21
330
1F
100
AcDbEntity
  8
0
100
AcDbBlockEnd
  0
BLOCK
  5
1C
330
1B
100
AcDbEntity
 67
     1
  8
0
100
AcDbBlockBegin
  2
*Paper_Space
 70
     0
 10
0.0
 20
0.0
 30
0.0
  3
*Paper_Space
  1

  0
ENDBLK
  5
1D
330
1B
100
AcDbEntity
 67
     1
  8
0
100
AcDbBlockEnd
  0
BLOCK
  5
24
330
23
100
AcDbEntity
  8
0
100
AcDbBlockBegin
  2
*Paper_Space0
 70
     0
 10
0.0
 20
0.0
 30
0.0
  3
*Paper_Space0
  1

  0
ENDBLK
  5
25
330
23
100
AcDbEntity
  8
0
100
AcDbBlockEnd
  0
BLOCK
  5
8D
330
8C
100
AcDbEntity
  8
0
100
AcDbBlockBegin
  2
SW_CENTERMARKSYMBOL_0
 70
     0
 10
0.0
 20
0.0
 30
0.0
  3
SW_CENTERMARKSYMBOL_0
  1

  0
LINE
  5
8F
330
8C
100
AcDbEntity
  8
FORMAT
 62
     0
100
AcDbLine
 10
0.0
 20
0.0
 30
0.0
 11
0.0
 21
2.5
 31
0.0
  0
LINE
  5
90
330
8C
100
AcDbEntity
  8
FORMAT
 62
     0
100
AcDbLine
 10
0.0
 20
0.0
 30
0.0
 11
-2.5
 21
0.0
 31
0.0
  0
LINE
  5
91
330
8C
100
AcDbEntity
  8
FORMAT
 62
     0
100
AcDbLine
 10
0.0
 20
0.0
 30
0.0
 11
0.0
 21
-2.5
 31
0.0
  0
LINE
  5
92
330
8C
100
AcDbEntity
  8
FORMAT
 62
     0
100
AcDbLine
 10
0.0
 20
0.0
 30
0.0
 11
2.5
 21
0.0
 31
0.0
  0
LINE
  5
93
330
8C
100
AcDbEntity
  8
FORMAT
 62
     0
100
AcDbLine
 10
0.0
 20
5.0
 30
0.0
 11
0.0
 21
25.0
 31
0.0
  0
LINE
  5
94
330
8C
100
AcDbEntity
  8
FORMAT
 62
     0
100
AcDbLine
 10
-5.0
 20
0.0
 30
0.0
 11
-25.0
 21
0.0
 31
0.0
  0
LINE
  5
95
330
8C
100
AcDbEntity
  8
FORMAT
 62
     0
100
AcDbLine
 10
0.0
 20
-5.0
 30
0.0
 11
0.0
 21
-25.0
 31
0.0
  0
LINE
  5
96
330
8C
100
AcDbEntity
  8
FORMAT
 62
     0
100
AcDbLine
 10
5.0
 20
0.0
 30
0.0
 11
25.0
 21
0.0
 31
0.0
  0
ENDBLK
  5
8E
330
8C
100
AcDbEntity
  8
0
100
AcDbBlockEnd
  0
BLOCK
  5
104
330
103
100
AcDbEntity
  8
0
100
AcDbBlockBegin
  2
SW_CENTERMARKSYMBOL_1
 70
     0
 10
0.0
 20
0.0
 30
0.0
  3
SW_CENTERMARKSYMBOL_1
  1

  0
LINE
  5
106
330
103
100
AcDbEntity
  8
FORMAT
 62
     0
100
AcDbLine
 10
0.0
 20
0.0
 30
0.0
 11
0.0
 21
2.5
 31
0.0
  0
LINE
  5
107
330
103
100
AcDbEntity
  8
FORMAT
 62
     0
100
AcDbLine
 10
0.0
 20
0.0
 30
0.0
 11
-2.5
 21
0.0
 31
0.0
  0
LINE
  5
108
330
103
100
AcDbEntity
  8
FORMAT
 62
     0
100
AcDbLine
 10
0.0
 20
0.0
 30
0.0
 11
0.0
 21
-2.5
 31
0.0
  0
LINE
  5
109
330
103
100
AcDbEntity
  8
FORMAT
 62
     0
100
AcDbLine
 10
0.0
 20
0.0
 30
0.0
 11
2.5
 21
0.0
 31
0.0
  0
LINE
  5
10A
330
103
100
AcDbEntity
  8
FORMAT
 62
     0
100
AcDbLine
 10
0.0
 20
5.0
 30
0.0
 11
0.0
 21
7.25
 31
0.0
  0
LINE
  5
10B
330
103
100
AcDbEntity
  8
FORMAT
 62
     0
100
AcDbLine
 10
-5.0
 20
0.0
 30
0.0
 11
-7.25
 21
0.0
 31
0.0
  0
LINE
  5
10C
330
103
100
AcDbEntity
  8
FORMAT
 62
     0
100
AcDbLine
 10
0.0
 20
-5.0
 30
0.0
 11
0.0
 21
-7.25
 31
0.0
  0
LINE
  5
10D
330
103
100
AcDbEntity
  8
FORMAT
 62
     0
100
AcDbLine
 10
5.0
 20
0.0
 30
0.0
 11
7.25
 21
0.0
 31
0.0
  0
ENDBLK
  5
105
330
103
100
AcDbEntity
  8
0
100
AcDbBlockEnd
  0
ENDSEC
  0
SECTION
  2
ENTITIES
  0
LINE
  5
83
330
1F
100
AcDbEntity
  8
0
  6
Continuous
 62
     7
370
    25
100
AcDbLine
 10
144.6487450591
 20
158.753365085
 30
0.0
 11
144.399234026
 21
173.0478425974
 31
0.0
  0
LINE
  5
84
330
1F
100
AcDbEntity
  8
0
  6
Continuous
 62
     7
370
    25
100
AcDbLine
 10
130.399234026
 20
173.0478425974
 30
0.0
 11
130.1497172404
 21
158.7530355283
 31
0.0
  0
LINE
  5
85
330
1F
100
AcDbEntity
  8
0
  6
Continuous
 62
     7
370
    25
100
AcDbLine
 10
130.1497838227
 20
116.1388351713
 30
0.0
 11
130.399234026
 21
101.8478425974
 31
0.0
  0
LINE
  5
86
330
1F
100
AcDbEntity
  8
0
  6
Continuous
 62
     7
370
    25
100
AcDbLine
 10
144.399234026
 20
101.8478425974
 30
0.0
 11
144.6486942713
 21
116.1394104804
 31
0.0
  0
CIRCLE
  5
87
330
1F
100
AcDbEntity
  8
0
  6
Continuous
 62
     7
370
    25
100
AcDbCircle
 10
137.399234026
 20
137.4478425974
 30
0.0
 40
21.49999999999999
  0
CIRCLE
  5
88
330
1F
100
AcDbEntity
  8
0
  6
Continuous
 62
     7
370
    25
100
AcDbCircle
 10
137.399234026
 20
137.4478425974
 30
0.0
 40
16.14999999999999
  0
CIRCLE
  5
89
330
1F
100
AcDbEntity
  8
0
  6
Continuous
 62
     7
370
    25
100
AcDbCircle
 10
137.399234026
 20
137.4478425974
 30
0.0
 40
22.49999999999999
  0
LINE
  5
8A
330
1F
100
AcDbEntity
  8
0
  6
Continuous
 62
     7
370
    25
100
AcDbLine
 10
130.399234026
 20
173.0478425974
 30
0.0
 11
144.399234026
 21
173.0478425974
 31
0.0
  0
LINE
  5
8B
330
1F
100
AcDbEntity
  8
0
  6
Continuous
 62
     7
370
    25
100
AcDbLine
 10
130.399234026
 20
101.8478425974
 30
0.0
 11
144.399234026
 21
101.8478425974
 31
0.0
  0
INSERT
  5
97
330
1F
100
AcDbEntity
  8
FORMAT
 62
     7
100
AcDbBlockReference
  2
SW_CENTERMARKSYMBOL_0
 10
137.399234026
 20
137.4478425974
 30
0.0
  0
LINE
  5
98
330
1F
100
AcDbEntity
  8
0
  6
Continuous
 62
     7
370
    25
100
AcDbLine
 10
288.593557501
 20
114.9478425974
 30
0.0
 11
290.1394937662
 21
114.9478425974
 31
0.0
  0
LINE
  5
99
330
1F
100
AcDbEntity
  8
0
  6
Continuous
 62
     7
370
    25
100
AcDbLine
 10
227.0399617867
 20
114.9478425974
 30
0.0
 11
274.1592325324
 21
114.9478425974
 31
0.0
  0
LINE
  5
9A
330
1F
100
AcDbEntity
  8
0
  6
Continuous
 62
     7
370
    25
100
AcDbLine
 10
274.1658293428
 20
159.9478425974
 30
0.0
 11
227.0399617867
 21
159.9478425974
 31
0.0
  0
LINE
  5
9B
330
1F
100
AcDbEntity
  8
0
  6
Continuous
 62
     7
370
    25
100
AcDbLine
 10
290.1394937662
 20
159.9478425974
 30
0.0
 11
288.5823820723
 21
159.9478425974
 31
0.0
  0
ARC
  5
9C
330
1F
100
AcDbEntity
  8
0
  6
Continuous
 62
     7
370
    25
100
AcDbCircle
 10
290.1394937662
 20
115.9478425974
 30
0.0
 40
1.0
100
AcDbArc
 50
270.0
 51
0.0
  0
ARC
  5
9D
330
1F
100
AcDbEntity
  8
0
  6
Continuous
 62
     7
370
    25
100
AcDbCircle
 10
290.1394937662
 20
158.9478425974
 30
0.0
 40
1.0
100
AcDbArc
 50
0.0
 51
90.0
  0
ARC
  5
9E
330
1F
100
AcDbEntity
  8
0
  6
Continuous
 62
     7
370
    25
100
AcDbCircle
 10
227.0399617867
 20
117.9478425974
 30
0.0
 40
3.000000000000002
100
AcDbArc
 50
196.9205155958
 51
270.0
  0
ARC
  5
9F
330
1F
100
AcDbEntity
  8
0
  6
Continuous
 62
     7
370
    25
100
AcDbCircle
 10
227.0399617867
 20
156.9478425974
 30
0.0
 40
3.000000000000002
100
AcDbArc
 50
90.0
 51
163.0794844042
  0
ARC
  5
A0
330
1F
100
AcDbEntity
  8
0
  6
Continuous
 62
     7
370
    25
100
AcDbCircle
 10
291.1394937662
 20
137.4478425974
 30
0.0
 40
70.00000000000001
100
AcDbArc
 50
163.0794844042
 51
196.9205155958
  0
LINE
  5
A1
330
1F
100
AcDbEntity
  8
0
  6
Continuous
 62
     7
370
    25
100
AcDbLine
 10
288.6047016124
 20
159.9410837579
 30
0.0
 11
288.3759222858
 21
173.0478425974
 31
0.0
  0
LINE
  5
A2
330
1F
100
AcDbEntity
  8
0
  6
Continuous
 62
     7
370
    25
100
AcDbLine
 10
274.3759222858
 20
173.0478425974
 30
0.0
 11
274.1471622904
 21
159.9421912393
 31
0.0
  0
LINE
  5
A3
330
1F
100
AcDbEntity
  8
0
  6
Continuous
 62
     7
370
    25
100
AcDbLine
 10
274.1471975866
 20
114.9514718418
 30
0.0
 11
274.3759222858
 21
101.8478425974
 31
0.0
  0
LINE
  5
A4
330
1F
100
AcDbEntity
  8
0
  6
Continuous
 62
     7
370
    25
100
AcDbLine
 10
288.3759222858
 20
101.8478425974
 30
0.0
 11
288.6046420305
 21
114.9511879947
 31
0.0
  0
SPLINE
  5
A5
330
1F
100
AcDbEntity
  8
0
  6
Continuous
 62
     7
370
    25
100
AcDbSpline
210
0.0
220
0.0
230
1.0
 70
     8
 71
     3
 72
    27
 73
    23
 74
     0
 42
0.00000001
 43
0.00000001
 40
0.0
 40
0.0
 40
0.0
 40
0.0
 40
0.0438464164907114
 40
0.0961757469285884
 40
0.1467661153527398
 40
0.1987210740982818
 40
0.2512533070140662
 40
0.3052262099814239
 40
0.3591315512976234
 40
0.4146916911223062
 40
0.4669218302860937
 40
0.5208172384333466
 40
0.5706962925607704
 40
0.621997740527851
 40
0.672459775648474
 40
0.724250220692661
 40
0.7772430952382892
 40
0.831719000531778
 40
0.8855104956646411
 40
0.9409765169913447
 40
0.9928057910961618
 40
1.0
 40
1.0
 40
1.0
 40
1.0
 10
288.5935575009894
 20
114.9513917330009
 30
0.0
 10
288.5845837630499
 20
114.954313167534
 30
0.0
 10
288.5649001487856
 20
114.9607212430579
 30
0.0
 10
288.3051789297112
 20
115.0436120225657
 30
0.0
 10
287.8696845747922
 20
115.1761540584422
 30
0.0
 10
287.2619621234281
 20
115.3482191574419
 30
0.0
 10
286.4860554355188
 20
115.5450932832409
 30
0.0
 10
285.5584822734488
 20
115.7460340389442
 30
0.0
 10
284.4905687405999
 20
115.9295620061672
 30
0.0
 10
283.3372734048512
 20
116.0681523129683
 30
0.0
 10
282.1228632117437
 20
116.1461839600527
 30
0.0
 10
280.9271378583508
 20
116.1541855032415
 30
0.0
 10
279.7535518523114
 20
116.0956929733744
 30
0.0
 10
278.6512637862135
 20
115.9820646000187
 30
0.0
 10
277.6107886084598
 20
115.8230175914191
 30
0.0
 10
276.6600197646306
 20
115.6349112107025
 30
0.0
 10
275.8129915805734
 20
115.4335254214319
 30
0.0
 10
275.1114528625541
 20
115.24317140125
 30
0.0
 10
274.5720907680614
 20
115.0826871822009
 30
0.0
 10
274.2565720818496
 20
114.9832484226048
 30
0.0
 10
274.1236268549928
 20
114.940240461705
 30
0.0
 10
274.1553641601297
 20
114.9504499909317
 30
0.0
 10
274.1592325323701
 20
114.9516944021783
 30
0.0
  0
SPLINE
  5
A6
330
1F
100
AcDbEntity
  8
0
  6
Continuous
 62
     7
370
    25
100
AcDbSpline
210
0.0
220
0.0
230
1.0
 70
     8
 71
     3
 72
    27
 73
    23
 74
     0
 42
0.00000001
 43
0.00000001
 40
0.0
 40
0.0
 40
0.0
 40
0.0
 40
0.0136786296365443
 40
0.0666030075328295
 40
0.116976791720376
 40
0.1687341579326146
 40
0.2206046161124915
 40
0.273871840484205
 40
0.3276454960591413
 40
0.383013613190175
 40
0.4360067963879284
 40
0.4907021123922594
 40
0.5410519179803307
 40
0.5928944202234121
 40
0.6428538298000772
 40
0.6941409301667909
 40
0.7464142784046603
 40
0.8001071211764965
 40
0.8540114975236384
 40
0.9095538110173441
 40
0.9620779763491787
 40
1.0
 40
1.0
 40
1.0
 40
1.0
 10
274.1658293428248
 20
159.9418580549315
 30
0.0
 10
274.1603316600126
 20
159.9436297440378
 30
0.0
 10
274.1335627350919
 20
159.9522563262345
 30
0.0
 10
274.2802367350719
 20
159.9048235519288
 30
0.0
 10
274.6056656611447
 20
159.8028546534864
 30
0.0
 10
275.1165326130613
 20
159.6512906565255
 30
0.0
 10
275.7964187455386
 20
159.4666451203609
 30
0.0
 10
276.6361646299081
 20
159.2657960507124
 30
0.0
 10
277.6289549441905
 20
159.0684605435967
 30
0.0
 10
278.7332277956013
 20
158.9019459733831
 30
0.0
 10
279.9259925180164
 20
158.7860341987744
 30
0.0
 10
281.1285110445699
 20
158.7378530904427
 30
0.0
 10
282.328410599695
 20
158.7586821728326
 30
0.0
 10
283.4649887113678
 20
158.8410823819818
 30
0.0
 10
284.5488735848527
 20
158.9761473979
 30
0.0
 10
285.5503838416111
 20
159.1486364467479
 30
0.0
 10
286.4630697704188
 20
159.3451691002949
 30
0.0
 10
287.2509723206771
 20
159.5442723962086
 30
0.0
 10
287.8917189719533
 20
159.7257720413721
 30
0.0
 10
288.3340692084601
 20
159.8611018067276
 30
0.0
 10
288.5784029093431
 20
159.9393502798116
 30
0.0
 10
288.5812065638922
 20
159.9402921148654
 30
0.0
 10
288.5823820722836
 20
159.940687004817
 30
0.0
  0
LINE
  5
A7
330
1F
100
AcDbEntity
  8
0
  6
Continuous
 62
     7
370
    25
100
AcDbLine
 10
291.1394937662
 20
137.4478425974
 30
0.0
 11
291.1394937662
 21
158.9478425974
 31
0.0
  0
LINE
  5
A8
330
1F
100
AcDbEntity
  8
0
  6
Continuous
 62
     7
370
    25
100
AcDbLine
 10
291.1394937662
 20
115.9478425974
 30
0.0
 11
291.1394937662
 21
137.4478425974
 31
0.0
  0
LINE
  5
A9
330
1F
100
AcDbEntity
  8
0
  6
Continuous
 62
     7
370
    25
100
AcDbLine
 10
274.3759222858
 20
173.0478425974
 30
0.0
 11
288.3759222858
 21
173.0478425974
 31
0.0
  0
LINE
  5
AA
330
1F
100
AcDbEntity
  8
0
  6
Continuous
 62
     7
370
    25
100
AcDbLine
 10
274.3759222858
 20
101.8478425974
 30
0.0
 11
288.3759222858
 21
101.8478425974
 31
0.0
  0
LINE
  5
AB
330
1F
100
AcDbEntity
  8
0
  6
Continuous
 62
     7
370
    25
100
AcDbLine
 10
290.1394937662
 20
137.4478425974
 30
0.0
 11
290.1394937662
 21
159.9478425974
 31
0.0
  0
LINE
  5
AC
330
1F
100
AcDbEntity
  8
0
  6
Continuous
 62
     7
370
    25
100
AcDbLine
 10
290.1394937662
 20
114.9478425974
 30
0.0
 11
290.1394937662
 21
137.4478425974
 31
0.0
  0
LINE
  5
AD
330
1F
100
AcDbEntity
  8
0
  6
Continuous
 62
     7
370
    25
100
AcDbLine
 10
227.0399617867
 20
137.4478425974
 30
0.0
 11
227.0399617867
 21
159.9478425974
 31
0.0
  0
LINE
  5
AE
330
1F
100
AcDbEntity
  8
0
  6
Continuous
 62
     7
370
    25
100
AcDbLine
 10
227.0399617867
 20
114.9478425974
 30
0.0
 11
227.0399617867
 21
137.4478425974
 31
0.0
  0
LINE
  5
AF
330
1F
100
AcDbEntity
  8
0
  6
Continuous
 62
     7
370
    25
100
AcDbLine
 10
224.1698334891
 20
137.4478425974
 30
0.0
 11
224.1698334891
 21
157.8209769258
 31
0.0
  0
LINE
  5
B0
330
1F
100
AcDbEntity
  8
0
  6
Continuous
 62
     7
370
    25
100
AcDbLine
 10
224.1698334891
 20
117.074708269
 30
0.0
 11
224.1698334891
 21
137.4478425974
 31
0.0
  0
SPLINE
  5
B1
330
1F
100
AcDbEntity
  8
0
  6
Continuous
 62
     7
370
    25
100
AcDbSpline
210
0.0
220
0.0
230
1.0
 70
     8
 71
     3
 72
    22
 73
    18
 74
     0
 42
0.00000001
 43
0.00000001
 40
0.0
 40
0.0
 40
0.0
 40
0.0
 40
0.0627880360780935
 40
0.1297794733893056
 40
0.1968480121928609
 40
0.2641185934522295
 40
0.3316920950816318
 40
0.3996361215864666
 40
0.4679810940822332
 40
0.5367219677196087
 40
0.6058247457269541
 40
0.6752359356713863
 40
0.7448926407157473
 40
0.8147312836889231
 40
0.8846938082797746
 40
0.9547311424405291
 40
1.0
 40
1.0
 40
1.0
 40
1.0
 10
213.7120690262696
 20
255.3877162890698
 30
0.0
 10
213.51307165467
 20
255.2685502807036
 30
0.0
 10
213.1017548544448
 20
255.0222405889586
 30
0.0
 10
212.5221921461108
 20
254.5774055613072
 30
0.0
 10
211.9652967054518
 20
254.0725858678935
 30
0.0
 10
211.4484537989956
 20
253.512421041705
 30
0.0
 10
210.971996841253
 20
252.8998028789516
 30
0.0
 10
210.5375505338675
 20
252.2356187858692
 30
0.0
 10
210.1464611969404
 20
251.5215503800052
 30
0.0
 10
209.8001556285317
 20
250.7594313647376
 30
0.0
 10
209.499959161636
 20
249.951474528079
 30
0.0
 10
209.2470214665765
 20
249.1002192420284
 30
0.0
 10
209.0423608846181
 20
248.2084381148628
 30
0.0
 10
208.8864252020297
 20
247.2792676191911
 30
0.0
 10
208.7806267442613
 20
246.3153651972162
 30
0.0
 10
208.7285649991883
 20
245.4390627893719
 30
0.0
 10
208.7233437933293
 20
244.8789382021501
 30
0.0
 10
208.7212939639074
 20
244.6590350054855
 30
0.0
  0
SPLINE
  5
B2
330
1F
100
AcDbEntity
  8
0
  6
Continuous
 62
     7
370
    25
100
AcDbSpline
210
0.0
220
0.0
230
1.0
 70
     8
 71
     3
 72
    51
 73
    47
 74
     0
 42
0.00000001
 43
0.00000001
 40
0.0
 40
0.0
 40
0.0
 40
0.0
 40
0.012490963516525
 40
0.036108874758938
 40
0.0597174695622447
 40
0.0833153045487559
 40
0.1069004322555551
 40
0.130472096943741
 40
0.1540304034353604
 40
0.1775760632343087
 40
0.201110205908736
 40
0.2246342426529397
 40
0.2481497700363242
 40
0.2716585038567683
 40
0.2951622350173774
 40
0.3186628011106649
 40
0.3421620688067759
 40
0.3656619231877304
 40
0.3891636609057749
 40
0.4126691552961022
 40
0.4361803112448872
 40
0.4596990243212611
 40
0.4832271638889585
 40
0.5067665456569673
 40
0.5303188887185327
 40
0.55388575067367
 40
0.5774684325690816
 40
0.6010678432054891
 40
0.6246843101210634
 40
0.6483173228901483
 40
0.671965194554978
 40
0.6956246313411144
 40
0.7192899662817849
 40
0.7429499448549598
 40
0.766591994794723
 40
0.7901997911836169
 40
0.813753390325144
 40
0.8372301153398886
 40
0.8606064413111507
 40
0.8838609312069231
 40
0.9069779163380035
 40
0.9299512113698264
 40
0.9527869161582608
 40
0.9755044621975483
 40
0.998135498127066
 40
1.0
 40
1.0
 40
1.0
 40
1.0
 10
208.7212939639074
 20
244.6590350054855
 30
0.0
 10
208.7226864647065
 20
244.477412268858
 30
0.0
 10
208.7267119057294
 20
243.9523772992513
 30
0.0
 10
208.7712274605317
 20
243.0653600223621
 30
0.0
 10
208.8705070594709
 20
241.9936808070854
 30
0.0
 10
209.0189179893088
 20
240.904156465201
 30
0.0
 10
209.2149646914937
 20
239.8004453968348
 30
0.0
 10
209.4581123379813
 20
238.6856667558423
 30
0.0
 10
209.7474222253582
 20
237.5631052383521
 30
0.0
 10
210.0819218133634
 20
236.4360130678109
 30
0.0
 10
210.460508296369
 20
235.3076597222046
 30
0.0
 10
210.8819766215942
 20
234.1813130639913
 30
0.0
 10
211.3450142890616
 20
233.0602369582999
 30
0.0
 10
211.8482054877135
 20
231.9476830208773
 30
0.0
 10
212.3900333743444
 20
230.8468828805206
 30
0.0
 10
212.968883593879
 20
229.7610396005542
 30
0.0
 10
213.5830482434457
 20
228.6933189318473
 30
0.0
 10
214.2307249741536
 20
227.6468493813496
 30
0.0
 10
214.910026158627
 20
226.6247041021254
 30
0.0
 10
215.6189850655211
 20
225.6298915488523
 30
0.0
 10
216.3555687990684
 20
224.6653393533571
 30
0.0
 10
217.1176796126994
 20
223.7338953663054
 30
0.0
 10
217.9031612851636
 20
222.838321327149
 30
0.0
 10
218.7098058304329
 20
221.9812869101674
 30
0.0
 10
219.5353600187224
 20
221.1653647224312
 30
0.0
 10
220.3775314085393
 20
220.3930263635298
 30
0.0
 10
221.2339934938788
 20
219.6666396169152
 30
0.0
 10
222.1023894538223
 20
218.9884667648413
 30
0.0
 10
222.9803338608031
 20
218.360663881047
 30
0.0
 10
223.8654115789275
 20
217.7852807276596
 30
0.0
 10
224.7551730155276
 20
217.2642605273474
 30
0.0
 10
225.6471218474207
 20
216.7994399951573
 30
0.0
 10
226.5386648724636
 20
216.3925598771244
 30
0.0
 10
227.4271188393825
 20
216.0452301864915
 30
0.0
 10
228.3096939478986
 20
215.7589034268916
 30
0.0
 10
229.1835132197964
 20
215.5348316825937
 30
0.0
 10
230.0455843104523
 20
215.3740294661894
 30
0.0
 10
230.8928144181956
 20
215.277221459026
 30
0.0
 10
231.7220667992263
 20
215.2447665796445
 30
0.0
 10
232.5301941825978
 20
215.2766834041702
 30
0.0
 10
233.314285752371
 20
215.3723846122606
 30
0.0
 10
234.0712035319197
 20
215.5316465272008
 30
0.0
 10
234.7997362054707
 20
215.7512153767626
 30
0.0
 10
235.4929486660674
 20
216.0377569245147
 30
0.0
 10
235.9611644013856
 20
216.2619738700729
 30
0.0
 10
236.1873556634731
 20
216.4067079692027
 30
0.0
 10
236.2045724331233
 20
216.4177245470416
 30
0.0
  0
LINE
  5
B3
330
1F
100
AcDbEntity
  8
0
  6
Continuous
 62
     7
370
    25
100
AcDbLine
 10
258.2931109697
 20
281.1262320871
 30
0.0
 11
237.9606229909
 21
269.3885366208
 31
0.0
  0
LINE
  5
B4
330
1F
100
AcDbEntity
  8
0
  6
Continuous
 62
     7
370
    25
100
AcDbLine
 10
223.9660017809
 20
261.309613761
 30
0.0
 11
213.6750040173
 21
255.368747207
 31
0.0
  0
LINE
  5
B5
330
1F
100
AcDbEntity
  8
0
  6
Continuous
 62
     7
370
    25
100
AcDbLine
 10
236.1731755016
 20
216.3965483998
 30
0.0
 11
280.791282454
 21
242.15403328
 31
0.0
  0
LINE
  5
B6
330
1F
100
AcDbEntity
  8
0
  6
Continuous
 62
     7
370
    25
100
AcDbLine
 10
238.3590274195
 20
257.4137299761
 30
0.0
 11
238.1203375449
 21
268.5786946215
 31
0.0
  0
LINE
  5
B7
330
1F
100
AcDbEntity
  8
0
  6
Continuous
 62
     7
370
    25
100
AcDbLine
 10
224.1214036164
 20
268.5786946215
 30
0.0
 11
223.8822049879
 21
257.3899324934
 31
0.0
  0
LINE
  5
B8
330
1F
100
AcDbEntity
  8
0
  6
Continuous
 62
     7
370
    25
100
AcDbLine
 10
223.9632831004
 20
217.7375017691
 30
0.0
 11
224.1214036164
 21
210.3412518304
 31
0.0
  0
LINE
  5
B9
330
1F
100
AcDbEntity
  8
0
  6
Continuous
 62
     7
370
    25
100
AcDbLine
 10
238.1203375449
 20
210.3412518304
 30
0.0
 11
238.2757393804
 21
217.6103326909
 31
0.0
  0
SPLINE
  5
BA
330
1F
100
AcDbEntity
  8
0
  6
Continuous
 62
     7
370
    25
100
AcDbSpline
210
0.0
220
0.0
230
1.0
 70
     8
 71
     3
 72
    64
 73
    60
 74
     0
 42
0.00000001
 43
0.00000001
 40
0.0
 40
0.0
 40
0.0
 40
0.0
 40
0.0132545647088163
 40
0.0294796040949516
 40
0.0457245466853179
 40
0.0620427811660354
 40
0.0784833480547937
 40
0.0950883723342608
 40
0.1118904656538585
 40
0.1289103415873111
 40
0.146155103878929
 40
0.163617777847869
 40
0.1812785328959987
 40
0.1991076388234658
 40
0.2170696419125466
 40
0.2351278292387002
 40
0.2532480195084706
 40
0.2714010733944692
 40
0.2895613789213951
 40
0.3077105168384263
 40
0.3258388169572788
 40
0.3439407595075483
 40
0.3620139875563268
 40
0.3800584565462411
 40
0.3980757581027555
 40
0.4160686097417157
 40
0.4340404847469273
 40
0.4519953524928718
 40
0.4699375017780353
 40
0.4878714242136227
 40
0.5058017393168655
 40
0.5237331467936757
 40
0.5416691074900102
 40
0.5596141035043354
 40
0.5775729093377255
 40
0.5955502599872121
 40
0.6135507891285124
 40
0.631578931470722
 40
0.6496387716893719
 40
0.6677338174405415
 40
0.6858666682417786
 40
0.7040385467917407
 40
0.7222486574378426
 40
0.7404933435630443
 40
0.7587650411530384
 40
0.7770499494032893
 40
0.7953223958518367
 40
0.8135539058149228
 40
0.8317091118241872
 40
0.8497475927681895
 40
0.8676274809872472
 40
0.8853104944910826
 40
0.9027673725464773
 40
0.9199823359782671
 40
0.9369554753215319
 40
0.9537027492322583
 40
0.9702540607699572
 40
0.9866502624223304
 40
1.0
 40
1.0
 40
1.0
 40
1.0
 10
280.7930104998132
 20
242.1608927486459
 30
0.0
 10
280.9805344607673
 20
242.2719255280541
 30
0.0
 10
281.39760829523
 20
242.5188745943132
 30
0.0
 10
282.0011830463191
 20
242.9701249585423
 30
0.0
 10
282.6085313420622
 20
243.4985617596938
 30
0.0
 10
283.1741612743319
 20
244.0812103445472
 30
0.0
 10
283.6982234955697
 20
244.7147524051084
 30
0.0
 10
284.1791708829031
 20
245.3987524247033
 30
0.0
 10
284.6157621416559
 20
246.132035275306
 30
0.0
 10
285.0065003501173
 20
246.9134690218783
 30
0.0
 10
285.3498218807725
 20
247.7415351079859
 30
0.0
 10
285.6441412859097
 20
248.6142517207312
 30
0.0
 10
285.8879828141767
 20
249.5290725684518
 30
0.0
 10
286.080105915077
 20
250.482899208953
 30
0.0
 10
286.2196116598486
 20
251.4721747319905
 30
0.0
 10
286.3060012741921
 20
252.4930386530034
 30
0.0
 10
286.3391807575388
 20
253.5414969538366
 30
0.0
 10
286.3194218451349
 20
254.6135156930598
 30
0.0
 10
286.247309563297
 20
255.7051340585408
 30
0.0
 10
286.1236724599208
 20
256.8125768050444
 30
0.0
 10
285.9495006411141
 20
257.9323139862092
 30
0.0
 10
285.7258858009798
 20
259.0610197476599
 30
0.0
 10
285.4539993999213
 20
260.1954701314856
 30
0.0
 10
285.1350777478109
 20
261.3325143333774
 30
0.0
 10
284.7704150282888
 20
262.4690515081642
 30
0.0
 10
284.3613610469969
 20
263.6020143163759
 30
0.0
 10
283.9093213081014
 20
264.7283588449675
 30
0.0
 10
283.4157577953377
 20
265.8450598701675
 30
0.0
 10
282.8821894462052
 20
266.9491102463717
 30
0.0
 10
282.310191747724
 20
268.0375232569078
 30
0.0
 10
281.701395188443
 20
269.1073368957121
 30
0.0
 10
281.0574978882993
 20
270.1555941558636
 30
0.0
 10
280.3802535070081
 20
271.1793709433061
 30
0.0
 10
279.6714626447721
 20
272.1757889245351
 30
0.0
 10
278.9329477362921
 20
273.1420431213034
 30
0.0
 10
278.1665578580258
 20
274.0753850188694
 30
0.0
 10
277.3741665071539
 20
274.9731183779218
 30
0.0
 10
276.5576666361312
 20
275.8325983107177
 30
0.0
 10
275.7189676618823
 20
276.6512276359509
 30
0.0
 10
274.8599958645788
 20
277.426450224685
 30
0.0
 10
273.9827000439618
 20
278.1557413343128
 30
0.0
 10
273.0890647854432
 20
278.8365954625347
 30
0.0
 10
272.1811340672422
 20
279.4665131784492
 30
0.0
 10
271.2610479203818
 20
280.0429898550182
 30
0.0
 10
270.331113188532
 20
280.5635005366827
 30
0.0
 10
269.3939653046394
 20
281.0254696791534
 30
0.0
 10
268.4525705033929
 20
281.4263786822483
 30
0.0
 10
267.5102668811364
 20
281.7638600611605
 30
0.0
 10
266.5706922124015
 20
282.0358377296558
 30
0.0
 10
265.6378207992552
 20
282.2406339435765
 30
0.0
 10
264.7158537431524
 20
282.3771129934784
 30
0.0
 10
263.8090421669376
 20
282.4447958856679
 30
0.0
 10
262.9214968619355
 20
282.4438784196306
 30
0.0
 10
262.0569654897879
 20
282.3752573718762
 30
0.0
 10
261.2188685656554
 20
282.240138091017
 30
0.0
 10
260.4097001728416
 20
282.0408624835214
 30
0.0
 10
259.6331159749943
 20
281.7771173792447
 30
0.0
 10
258.9310358132913
 20
281.478091746667
 30
0.0
 10
258.5043381717473
 20
281.239070949551
 30
0.0
 10
258.3128397122242
 20
281.1318003438919
 30
0.0
  0
LWPOLYLINE
  5
BB
330
1F
100
AcDbEntity
  8
0
  6
Continuous
 62
     7
370
    25
100
AcDbPolyline
 90
      107
 70
   128
 43
0.0
 10
209.0141871827
 20
244.2508309496
 10
209.0408873701
 20
245.275423653
 10
209.1208941467
 20
246.2655900571
 10
209.253926486
 20
247.2178521662
 10
209.4395171069
 20
248.128865125
 10
209.6770141157
 20
248.9954289671
 10
209.9655832953
 20
249.8144998555
 10
210.3042110361
 20
250.5832007739
 10
210.6917078958
 20
251.2988316321
 10
211.1267127775
 20
251.9588787508
 10
211.6076977107
 20
252.5610236903
 10
212.1329732183
 20
253.1031513946
 10
212.7006942508
 20
253.5833576203
 10
213.3088666676
 20
253.9999556256
 10
213.9553542407
 20
254.3514820948
 10
214.637886159
 20
254.6367022783
 10
215.3540650043
 20
254.8546143298
 10
216.1013751722
 20
255.0044528254
 10
216.8771917085
 20
255.0856914518
 10
217.6787895293
 20
255.0980448554
 10
218.503352993
 20
255.0414696443
 10
219.3479857905
 20
254.9161645412
 10
220.2097211182
 20
254.7225696847
 10
221.0855320993
 20
254.4613650839
 10
221.9723424158
 20
254.1334682294
 10
222.8670371142
 20
253.7400308709
 10
223.7664735466
 20
253.2824349714
 10
224.6674924099
 20
252.7622878533
 10
225.5669288423
 20
252.1814165523
 10
226.4616235407
 20
251.5418613999
 10
227.3484338572
 20
250.8458688571
 10
228.2242448383
 20
250.0958836229
 10
229.085980166
 20
249.2945400479
 10
229.9306129634
 20
248.4446528806
 10
230.7551764272
 20
247.5492073807
 10
231.556774248
 20
246.6113488332
 10
232.3325907843
 20
245.6343715003
 10
233.0799009522
 20
244.6217070507
 10
233.7960797974
 20
243.5769125051
 10
234.4786117158
 20
242.5036577425
 10
235.1250992889
 20
241.4057126094
 10
235.7332717056
 20
240.286933678
 10
236.3009927382
 20
239.1512507003
 10
236.8262682458
 20
238.002652804
 10
237.307253179
 20
236.8451744813
 10
237.7422580607
 20
235.6828814168
 10
238.1297549203
 20
234.5198562074
 10
238.4683826612
 20
233.3601840216
 10
238.7569518408
 20
232.2079382502
 10
238.9944488496
 20
231.0671661984
 10
239.1800394705
 20
229.9418748698
 10
239.3130718097
 20
228.8360168912
 10
239.3930785864
 20
227.753476629
 10
239.4197787737
 20
226.6980565454
 10
239.3930785864
 20
225.6734638419
 10
239.3130718097
 20
224.6832974378
 10
239.1800394705
 20
223.7310353287
 10
238.9944488496
 20
222.82002237
 10
238.7569518408
 20
221.9534585278
 10
238.4683826612
 20
221.1343876394
 10
238.1297549203
 20
220.3656867211
 10
237.7422580607
 20
219.6500558628
 10
237.307253179
 20
218.9900087442
 10
236.8262682458
 20
218.3878638047
 10
236.3009927382
 20
217.8457361004
 10
235.7332717056
 20
217.3655298746
 10
235.1250992889
 20
216.9489318693
 10
234.4786117158
 20
216.5974054002
 10
233.7960797974
 20
216.3121852167
 10
233.0799009522
 20
216.0942731651
 10
232.3325907843
 20
215.9444346696
 10
231.556774248
 20
215.8631960432
 10
230.7551764272
 20
215.8508426396
 10
229.9306129634
 20
215.9074178506
 10
229.085980166
 20
216.0327229537
 10
228.2242448383
 20
216.2263178102
 10
227.3484338572
 20
216.487522411
 10
226.4616235407
 20
216.8154192655
 10
225.5669288423
 20
217.2088566241
 10
224.6674924099
 20
217.6664525235
 10
223.7664735466
 20
218.1865996416
 10
222.8670371142
 20
218.7674709427
 10
221.9723424158
 20
219.407026095
 10
221.0855320993
 20
220.1030186379
 10
220.2097211182
 20
220.8530038721
 10
219.3479857905
 20
221.6543474471
 10
218.503352993
 20
222.5042346143
 10
217.6787895293
 20
223.3996801143
 10
216.8771917085
 20
224.3375386618
 10
216.1013751722
 20
225.3145159947
 10
215.3540650043
 20
226.3271804443
 10
214.637886159
 20
227.3719749899
 10
213.9553542407
 20
228.4452297525
 10
213.3088666676
 20
229.5431748856
 10
212.7006942508
 20
230.6619538169
 10
212.1329732183
 20
231.7976367947
 10
211.6076977107
 20
232.9462346909
 10
211.1267127775
 20
234.1037130137
 10
210.6917078958
 20
235.2660060781
 10
210.3042110361
 20
236.4290312875
 10
209.9655832953
 20
237.5887034734
 10
209.6770141157
 20
238.7409492448
 10
209.4395171069
 20
239.8817212965
 10
209.253926486
 20
241.0070126251
 10
209.1208941467
 20
242.1128706038
 10
209.0408873701
 20
243.195410866
 10
209.0141871827
 20
244.2508309496
  0
LINE
  5
BC
330
1F
100
AcDbEntity
  8
0
  6
Continuous
 62
     7
370
    25
100
AcDbLine
 10
213.6750040173
 20
255.368747207
 30
0.0
 11
213.708217404
 21
255.3878080159
 31
0.0
  0
LINE
  5
BD
330
1F
100
AcDbEntity
  8
0
  6
Continuous
 62
     7
370
    25
100
AcDbLine
 10
236.2031775351
 20
216.4139608234
 30
0.0
 11
236.1731755016
 21
216.3965483998
 31
0.0
  0
LINE
  5
BE
330
1F
100
AcDbEntity
  8
0
  6
Continuous
 62
     7
370
    25
100
AcDbLine
 10
238.3596734516
 20
257.2983939805
 30
0.0
 11
238.3471823919
 21
257.4130513276
 31
0.0
  0
SPLINE
  5
BF
330
1F
100
AcDbEntity
  8
0
  6
Continuous
 62
     7
370
    25
100
AcDbSpline
210
0.0
220
0.0
230
1.0
 70
     8
 71
     3
 72
    27
 73
    23
 74
     0
 42
0.00000001
 43
0.00000001
 40
0.0
 40
0.0
 40
0.0
 40
0.0
 40
0.0007679999435058
 40
0.0537136001871176
 40
0.1084034388317446
 40
0.1630806381637686
 40
0.2163921567909751
 40
0.2696981947995833
 40
0.3209248672948719
 40
0.3721593051060594
 40
0.4236957572238711
 40
0.4752409135413758
 40
0.5289596005917895
 40
0.5826742287856826
 40
0.637292465967
 40
0.6918946874891032
 40
0.7442620326702761
 40
0.7966276865447043
 40
0.8469864579093853
 40
0.8973564644957348
 40
0.9486747221672677
 40
1.0
 40
1.0
 40
1.0
 40
1.0
 10
223.8841772406473
 20
257.3897991617206
 30
0.0
 10
223.8836554990928
 20
257.3872450915051
 30
0.0
 10
223.8471651093518
 20
257.2086144710684
 30
0.0
 10
223.9553068303296
 20
256.8469215017986
 30
0.0
 10
224.234714201042
 20
256.303892610433
 30
0.0
 10
224.7373010457435
 20
255.7614015415994
 30
0.0
 10
225.4188366217428
 20
255.2313109561862
 30
0.0
 10
226.2446916949248
 20
254.7319618193468
 30
0.0
 10
227.1929811004097
 20
254.2719528353913
 30
0.0
 10
228.2280011796317
 20
253.8641612336711
 30
0.0
 10
229.3374856145418
 20
253.5202894315463
 30
0.0
 10
230.506965767008
 20
253.2522667250692
 30
0.0
 10
231.7085697272764
 20
253.0850182708865
 30
0.0
 10
232.9191460362636
 20
253.0374195515498
 30
0.0
 10
234.0890958884834
 20
253.1364347518118
 30
0.0
 10
235.1708618210393
 20
253.3861264886031
 30
0.0
 10
236.1234093212899
 20
253.790278799929
 30
0.0
 10
236.918098406133
 20
254.3180410141809
 30
0.0
 10
237.5456602846751
 20
254.9586966930985
 30
0.0
 10
238.0032817590199
 20
255.6814269390096
 30
0.0
 10
238.296712832782
 20
256.4720689868903
 30
0.0
 10
238.3386856217861
 20
257.0229397573132
 30
0.0
 10
238.3596734516233
 20
257.298393980543
 30
0.0
  0
LWPOLYLINE
  5
C0
330
1F
100
AcDbEntity
  8
0
  6
Continuous
 62
     7
370
    25
100
AcDbPolyline
 90
       93
 70
   128
 43
0.0
 10
212.7972084621
 20
242.0669392504
 10
212.8238305923
 20
242.951492479
 10
212.9035728582
 20
243.8011842548
 10
213.0360634645
 20
244.6120529226
 10
213.220684679
 20
245.3803178383
 10
213.4565757122
 20
246.1023969962
 10
213.7426367314
 20
246.7749237301
 10
214.0775339878
 20
247.3947624097
 10
214.4597060361
 20
247.9590230611
 10
214.8873710136
 20
248.4650748407
 10
215.3585349487
 20
248.9105583013
 10
215.8710010579
 20
249.2933963936
 10
216.4223799874
 20
249.6118041495
 10
217.0101009542
 20
249.8642970051
 10
217.6314237318
 20
250.0496977222
 10
218.2834514266
 20
250.1671418771
 10
218.9631439846
 20
250.2160818909
 10
219.6673323652
 20
250.1962895826
 10
220.3927333172
 20
250.1078572332
 10
221.1359646864
 20
249.951197155
 10
221.8935611852
 20
249.7270397697
 10
222.6619905489
 20
249.4364302025
 10
223.4376700052
 20
249.0807234093
 10
224.2169829782
 20
248.6615778594
 10
224.9962959513
 20
248.1809478029
 10
225.7719754075
 20
247.6410741589
 10
226.5404047713
 20
247.0444740675
 10
227.29800127
 20
246.3939291539
 10
228.0412326393
 20
245.6924725586
 10
228.7666335913
 20
244.9433747962
 10
229.4708219719
 20
244.1501285063
 10
230.1505145299
 20
243.3164321691
 10
230.8025422247
 20
242.4461728618
 10
231.4238650023
 20
241.5434081352
 10
232.0115859691
 20
240.612347095
 10
232.5629648986
 20
239.6573307777
 10
233.0754310077
 20
238.6828119102
 10
233.5465949429
 20
237.6933341492
 10
233.9742599204
 20
236.6935108969
 10
234.3564319686
 20
235.6880037908
 10
234.6913292251
 20
234.6815009692
 10
234.9773902442
 20
233.6786952128
 10
235.2132812775
 20
232.6842620651
 10
235.3979024919
 20
231.7028380324
 10
235.5303930983
 20
230.7389989666
 10
235.6101353642
 20
229.7972387303
 10
235.6367574944
 20
228.8819482445
 10
235.6101353642
 20
227.997395016
 10
235.5303930983
 20
227.1477032402
 10
235.3979024919
 20
226.3368345724
 10
235.2132812775
 20
225.5685696567
 10
234.9773902442
 20
224.8464904987
 10
234.6913292251
 20
224.1739637649
 10
234.3564319686
 20
223.5541250852
 10
233.9742599204
 20
222.9898644338
 10
233.5465949429
 20
222.4838126543
 10
233.0754310077
 20
222.0383291936
 10
232.5629648986
 20
221.6554911014
 10
232.0115859691
 20
221.3370833455
 10
231.4238650023
 20
221.0845904899
 10
230.8025422247
 20
220.8991897727
 10
230.1505145299
 20
220.7817456178
 10
229.4708219719
 20
220.7328056041
 10
228.7666335913
 20
220.7525979123
 10
228.0412326393
 20
220.8410302618
 10
227.29800127
 20
220.9976903399
 10
226.5404047713
 20
221.2218477252
 10
225.7719754075
 20
221.5124572924
 10
224.9962959513
 20
221.8681640856
 10
224.2169829782
 20
222.2873096355
 10
223.4376700052
 20
222.7679396921
 10
222.6619905489
 20
223.3078133361
 10
221.8935611852
 20
223.9044134274
 10
221.1359646864
 20
224.5549583411
 10
220.3927333172
 20
225.2564149363
 10
219.6673323652
 20
226.0055126987
 10
218.9631439846
 20
226.7987589887
 10
218.2834514266
 20
227.6324553259
 10
217.6314237318
 20
228.5027146331
 10
217.0101009542
 20
229.4054793598
 10
216.4223799874
 20
230.3365403999
 10
215.8710010579
 20
231.2915567172
 10
215.3585349487
 20
232.2660755848
 10
214.8873710136
 20
233.2555533458
 10
214.4597060361
 20
234.2553765981
 10
214.0775339878
 20
235.2608837042
 10
213.7426367314
 20
236.2673865258
 10
213.4565757122
 20
237.2701922821
 10
213.220684679
 20
238.2646254298
 10
213.0360634645
 20
239.2460494625
 10
212.9035728582
 20
240.2098885284
 10
212.8238305923
 20
241.1516487647
 10
212.7972084621
 20
242.0669392504
  0
LWPOLYLINE
  5
C1
330
1F
100
AcDbEntity
  8
0
  6
Continuous
 62
     7
370
    25
100
AcDbPolyline
 90
       61
 70
   128
 43
0.0
 10
236.0706180489
 20
271.3862545205
 10
235.526113318
 20
271.6692838274
 10
234.9333438257
 20
271.9179056226
 10
234.2988040788
 20
272.1293959537
 10
233.6294462275
 20
272.3014376883
 10
232.9326038964
 20
272.4321459012
 10
232.2159118359
 20
272.5200885259
 10
231.4872222743
 20
272.5643020445
 10
230.7545188869
 20
272.5643020445
 10
230.0258293254
 20
272.5200885259
 10
229.3091372649
 20
272.4321459012
 10
228.6122949338
 20
272.3014376883
 10
227.9429370825
 20
272.1293959537
 10
227.3083973355
 20
271.9179056226
 10
226.7156278433
 20
271.6692838274
 10
226.1711231123
 20
271.3862545205
 10
225.6808488504
 20
271.0719186301
 10
225.250176605
 20
270.7297200862
 10
224.8838249113
 20
270.3634080874
 10
224.5858075952
 20
269.9769960248
 10
224.3593897966
 20
269.5747175098
 10
224.2070521965
 20
269.16097999
 10
224.1304638374
 20
268.7403164602
 10
224.1304638374
 20
268.317335798
 10
224.2070521965
 20
267.8966722682
 10
224.3593897966
 20
267.4829347484
 10
224.5858075952
 20
267.0806562334
 10
224.8838249113
 20
266.6942441708
 10
225.250176605
 20
266.327932172
 10
225.6808488504
 20
265.9857336281
 10
226.1711231123
 20
265.6713977377
 10
226.7156278433
 20
265.3883684308
 10
227.3083973355
 20
265.1397466356
 10
227.9429370825
 20
264.9282563045
 10
228.6122949338
 20
264.7562145699
 10
229.3091372649
 20
264.625506357
 10
230.0258293254
 20
264.5375637323
 10
230.7545188869
 20
264.4933502137
 10
231.4872222743
 20
264.4933502137
 10
232.2159118359
 20
264.5375637323
 10
232.9326038964
 20
264.625506357
 10
233.6294462275
 20
264.7562145699
 10
234.2988040788
 20
264.9282563045
 10
234.9333438257
 20
265.1397466356
 10
235.526113318
 20
265.3883684308
 10
236.0706180489
 20
265.6713977377
 10
236.5608923108
 20
265.9857336281
 10
236.9915645563
 20
266.327932172
 10
237.35791625
 20
266.6942441708
 10
237.6559335661
 20
267.0806562334
 10
237.8823513647
 20
267.4829347484
 10
238.0346889648
 20
267.8966722682
 10
238.1112773239
 20
268.317335798
 10
238.1112773239
 20
268.7403164602
 10
238.0346889648
 20
269.16097999
 10
237.8823513647
 20
269.5747175098
 10
237.6559335661
 20
269.9769960248
 10
237.35791625
 20
270.3634080874
 10
236.9915645563
 20
270.7297200862
 10
236.5608923108
 20
271.0719186301
 10
236.0706180489
 20
271.3862545205
  0
LWPOLYLINE
  5
C2
330
1F
100
AcDbEntity
  8
0
  6
Continuous
 62
     7
370
    25
100
AcDbPolyline
 90
       51
 70
   128
 43
0.0
 10
234.4796277913
 20
270.4677953947
 10
234.0321790855
 20
270.6955233307
 10
233.5388173054
 20
270.8890811576
 10
233.0073230611
 20
271.0454163527
 10
232.4460783343
 20
271.1620634166
 10
231.8639342896
 20
271.2371827555
 10
231.2700716863
 20
271.2695896925
 10
230.6738560924
 20
271.2587731508
 10
230.084690184
 20
271.2049037139
 10
229.5118654595
 20
271.1088309348
 10
228.9644157069
 20
270.9720699387
 10
228.4509745358
 20
270.7967775282
 10
227.9796392203
 20
270.5857181693
 10
227.5578429999
 20
270.3422203942
 10
227.1922378528
 20
270.0701243083
 10
226.8885895907
 20
269.7737210294
 10
226.6516869281
 20
269.4576850142
 10
226.4852659614
 20
269.1270003396
 10
226.3919512488
 20
268.7868821003
 10
226.3732144189
 20
268.4426941642
 10
226.4293509628
 20
268.0998645806
 10
226.5594755737
 20
267.7637999769
 10
226.7615361086
 20
267.4398002927
 10
227.0323459524
 20
267.1329751964
 10
227.3676342718
 20
266.8481635032
 10
227.76211337
 20
266.5898568635
 10
228.2095620758
 20
266.3621289275
 10
228.7029238558
 20
266.1685711006
 10
229.2344181001
 20
266.0122359055
 10
229.7956628269
 20
265.8955888416
 10
230.3778068717
 20
265.8204695027
 10
230.971669475
 20
265.7880625657
 10
231.5678850689
 20
265.7988791074
 10
232.1570509773
 20
265.8527485443
 10
232.7298757018
 20
265.9488213234
 10
233.2773254544
 20
266.0855823195
 10
233.7907666254
 20
266.26087473
 10
234.2621019409
 20
266.4719340889
 10
234.6838981614
 20
266.715431864
 10
235.0495033084
 20
266.9875279499
 10
235.3531515705
 20
267.2839312288
 10
235.5900542332
 20
267.599967244
 10
235.7564751998
 20
267.9306519186
 10
235.8497899125
 20
268.2707701579
 10
235.8685267424
 20
268.614958094
 10
235.8123901985
 20
268.9577876776
 10
235.6822655876
 20
269.2938522813
 10
235.4802050526
 20
269.6178519655
 10
235.2093952089
 20
269.9246770618
 10
234.8741068894
 20
270.209488755
 10
234.4796277913
 20
270.4677953947
  0
LWPOLYLINE
  5
C3
330
1F
100
AcDbEntity
  8
0
  6
Continuous
 62
     7
370
    25
100
AcDbPolyline
 90
       32
 70
   128
 43
0.0
 10
224.1214036164
 20
210.3412518304
 10
224.1304638374
 20
210.1796299918
 10
224.2070521965
 20
209.7589664619
 10
224.3593897966
 20
209.3452289421
 10
224.5858075952
 20
208.9429504271
 10
224.8838249113
 20
208.5565383645
 10
225.250176605
 20
208.1902263658
 10
225.6808488504
 20
207.8480278218
 10
226.1711231123
 20
207.5336919315
 10
226.7156278433
 20
207.2506626245
 10
227.3083973355
 20
207.0020408293
 10
227.9429370825
 20
206.7905504982
 10
228.6122949338
 20
206.6185087636
 10
229.3091372649
 20
206.4878005507
 10
230.0258293254
 20
206.3998579261
 10
230.7545188869
 20
206.3556444075
 10
231.4872222743
 20
206.3556444075
 10
232.2159118359
 20
206.3998579261
 10
232.9326038964
 20
206.4878005507
 10
233.6294462275
 20
206.6185087636
 10
234.2988040788
 20
206.7905504982
 10
234.9333438257
 20
207.0020408293
 10
235.526113318
 20
207.2506626245
 10
236.0706180489
 20
207.5336919315
 10
236.5608923108
 20
207.8480278218
 10
236.9915645563
 20
208.1902263658
 10
237.35791625
 20
208.5565383645
 10
237.6559335661
 20
208.9429504271
 10
237.8823513647
 20
209.3452289421
 10
238.0346889648
 20
209.7589664619
 10
238.1112773239
 20
210.1796299918
 10
238.1203375449
 20
210.3412518304
  0
LWPOLYLINE
  5
C4
330
1F
100
AcDbEntity
  8
0
  6
Continuous
 62
     7
370
    25
100
AcDbPolyline
 90
       56
 70
   128
 43
0.0
 10
213.708217404
 20
255.3878080159
 10
214.0060521569
 20
255.5489276877
 10
214.6974015118
 20
255.8602866734
 10
215.4233547426
 20
256.1040476529
 10
216.1814554533
 20
256.2793858162
 10
216.9691384711
 20
256.3857078746
 10
217.7837385259
 20
256.4226540677
 10
218.6224992691
 20
256.3900993815
 10
219.4825825998
 20
256.2881539706
 10
220.3610782683
 20
256.117162786
 10
221.2550137233
 20
255.8777044078
 10
222.1613641701
 20
255.5705890874
 10
223.0770628058
 20
255.1968560057
 10
223.9990111961
 20
254.7577697572
 10
224.9240897594
 20
254.2548160708
 10
225.8491683227
 20
253.6896967826
 10
226.771116713
 20
253.0643240773
 10
227.6868153487
 20
252.3808140182
 10
228.5931657956
 20
251.6414793871
 10
229.4871012505
 20
250.8488218582
 10
230.365596919
 20
250.0055235337
 10
231.2256802497
 20
249.1144378682
 10
232.0644409929
 20
248.1785800136
 10
232.8790410478
 20
247.2011166166
 10
233.6667240655
 20
246.1853551039
 10
234.4248247762
 20
245.1347324909
 10
235.150778007
 20
244.052803752
 10
235.842127362
 20
242.9432297916
 10
236.4965335337
 20
241.8097650567
 10
237.1117822189
 20
240.6562448333
 10
237.6857916107
 20
239.4865722685
 10
238.216619443
 20
238.3047051641
 10
238.7024695626
 20
237.1146425843
 10
239.1416980063
 20
235.9204113241
 10
239.5328185642
 20
234.7260522842
 10
239.8745078082
 20
233.5356067973
 10
240.1656095699
 20
232.3531029543
 10
240.4051388531
 20
231.1825419738
 10
240.5922851666
 20
230.0278846637
 10
240.7264152665
 20
228.8930380187
 10
240.807075299
 20
227.7818420008
 10
240.8339923361
 20
226.6980565454
 10
240.807075299
 20
225.6453488395
 10
240.7264152665
 20
224.6272809128
 10
240.5922851666
 20
223.6472975848
 10
240.4051388531
 20
222.708714809
 10
240.1656095699
 20
221.8147084523
 10
239.8745078082
 20
220.9683035493
 10
239.5328185642
 20
220.1723640662
 10
239.1416980063
 20
219.4295832103
 10
238.7024695626
 20
218.7424743169
 10
238.216619443
 20
218.1133623449
 10
237.6857916107
 20
217.5443760103
 10
237.1117822189
 20
217.0374405825
 10
236.4965335337
 20
216.5942713707
 10
236.2031775351
 20
216.4139608234
  0
LWPOLYLINE
  5
C5
330
1F
100
AcDbEntity
  8
0
  6
Continuous
 62
     7
370
    25
100
AcDbPolyline
 90
       56
 70
   128
 43
0.0
 10
258.2931109697
 20
281.1262320871
 10
258.6241591093
 20
281.3064125679
 10
259.3155084642
 20
281.6177715536
 10
260.041461695
 20
281.8615325331
 10
260.7995624057
 20
282.0368706964
 10
261.5872454235
 20
282.1431927548
 10
262.4018454784
 20
282.1801389479
 10
263.2406062216
 20
282.1475842617
 10
264.1006895523
 20
282.0456388508
 10
264.9791852208
 20
281.8746476662
 10
265.8731206757
 20
281.635189288
 10
266.7794711226
 20
281.3280739675
 10
267.6951697583
 20
280.9543408859
 10
268.6171181486
 20
280.5152546374
 10
269.5421967119
 20
280.012300951
 10
270.4672752752
 20
279.4471816628
 10
271.3892236654
 20
278.8218089575
 10
272.3049223012
 20
278.1382988984
 10
273.211272748
 20
277.3989642672
 10
274.105208203
 20
276.6063067383
 10
274.9837038714
 20
275.7630084138
 10
275.8437872022
 20
274.8719227484
 10
276.6825479454
 20
273.9360648938
 10
277.4971480002
 20
272.9586014968
 10
278.284831018
 20
271.942839984
 10
279.0429317287
 20
270.8922173711
 10
279.7688849595
 20
269.8102886322
 10
280.4602343144
 20
268.7007146718
 10
281.1146404862
 20
267.5672499369
 10
281.7298891713
 20
266.4137297134
 10
282.3038985631
 20
265.2440571486
 10
282.8347263955
 20
264.0621900443
 10
283.320576515
 20
262.8721274645
 10
283.7598049588
 20
261.6778962043
 10
284.1509255167
 20
260.4835371643
 10
284.4926147606
 20
259.2930916775
 10
284.7837165223
 20
258.1105878345
 10
285.0232458056
 20
256.940026854
 10
285.2103921191
 20
255.7853695439
 10
285.344522219
 20
254.6505228989
 10
285.4251822515
 20
253.5393268809
 10
285.4520992886
 20
252.4555414256
 10
285.4251822515
 20
251.4028337197
 10
285.344522219
 20
250.384765793
 10
285.2103921191
 20
249.404782465
 10
285.0232458056
 20
248.4661996892
 10
284.7837165223
 20
247.5721933325
 10
284.4926147606
 20
246.7257884294
 10
284.1509255167
 20
245.9298489464
 10
283.7598049588
 20
245.1870680905
 10
283.320576515
 20
244.499959197
 10
282.8347263955
 20
243.8708472251
 10
282.3038985631
 20
243.3018608904
 10
281.7298891713
 20
242.7949254627
 10
281.1146404862
 20
242.3517562508
 10
280.791282454
 20
242.15403328
  0
LINE
  5
C6
330
1F
100
AcDbEntity
  8
0
  6
Continuous
 62
     7
370
    25
100
AcDbLine
 10
-5.8496676114
 20
159.9478425974
 30
0.0
 11
-7.4067793054
 21
159.9478425974
 31
0.0
  0
LINE
  5
C7
330
1F
100
AcDbEntity
  8
0
  6
Continuous
 62
     7
370
    25
100
AcDbLine
 10
55.6927526742
 20
159.9478425974
 30
0.0
 11
8.566885118
 21
159.9478425974
 31
0.0
  0
LINE
  5
C8
330
1F
100
AcDbEntity
  8
0
  6
Continuous
 62
     7
370
    25
100
AcDbLine
 10
8.5734819285
 20
114.9478425974
 30
0.0
 11
55.6927526742
 21
114.9478425974
 31
0.0
  0
LINE
  5
C9
330
1F
100
AcDbEntity
  8
0
  6
Continuous
 62
     7
370
    25
100
AcDbLine
 10
-7.4067793054
 20
114.9478425974
 30
0.0
 11
-5.8608430401
 21
114.9478425974
 31
0.0
  0
ARC
  5
CA
330
1F
100
AcDbEntity
  8
0
  6
Continuous
 62
     7
370
    25
100
AcDbCircle
 10
55.6927526742
 20
156.9478425974
 30
0.0
 40
3.000000000000002
100
AcDbArc
 50
16.9205155958
 51
90.0
  0
ARC
  5
CB
330
1F
100
AcDbEntity
  8
0
  6
Continuous
 62
     7
370
    25
100
AcDbCircle
 10
55.6927526742
 20
117.9478425974
 30
0.0
 40
3.000000000000002
100
AcDbArc
 50
270.0
 51
343.0794844042
  0
ARC
  5
CC
330
1F
100
AcDbEntity
  8
0
  6
Continuous
 62
     7
370
    25
100
AcDbCircle
 10
-7.4067793054
 20
158.9478425974
 30
0.0
 40
1.000000000000002
100
AcDbArc
 50
90.0
 51
180.0
  0
ARC
  5
CD
330
1F
100
AcDbEntity
  8
0
  6
Continuous
 62
     7
370
    25
100
AcDbCircle
 10
-7.4067793054
 20
115.9478425974
 30
0.0
 40
1.000000000000002
100
AcDbArc
 50
180.0
 51
270.0
  0
ARC
  5
CE
330
1F
100
AcDbEntity
  8
0
  6
Continuous
 62
     7
370
    25
100
AcDbCircle
 10
-8.4067793054
 20
137.4478425974
 30
0.0
 40
70.00000000000001
100
AcDbArc
 50
343.0794844042
 51
0.0
  0
ARC
  5
CF
330
1F
100
AcDbEntity
  8
0
  6
Continuous
 62
     7
370
    25
100
AcDbCircle
 10
-8.4067793054
 20
137.4478425974
 30
0.0
 40
70.00000000000001
100
AcDbArc
 50
0.0
 51
16.9205155958
  0
LINE
  5
D0
330
1F
100
AcDbEntity
  8
0
  6
Continuous
 62
     7
370
    25
100
AcDbLine
 10
8.5855521704
 20
159.9421912393
 30
0.0
 11
8.356792175
 21
173.0478425974
 31
0.0
  0
LINE
  5
D1
330
1F
100
AcDbEntity
  8
0
  6
Continuous
 62
     7
370
    25
100
AcDbLine
 10
-5.643207825
 20
173.0478425974
 30
0.0
 11
-5.8719871515
 21
159.9410837579
 31
0.0
  0
LINE
  5
D2
330
1F
100
AcDbEntity
  8
0
  6
Continuous
 62
     7
370
    25
100
AcDbLine
 10
-5.8719275697
 20
114.9511879947
 30
0.0
 11
-5.643207825
 21
101.8478425974
 31
0.0
  0
LINE
  5
D3
330
1F
100
AcDbEntity
  8
0
  6
Continuous
 62
     7
370
    25
100
AcDbLine
 10
8.356792175
 20
101.8478425974
 30
0.0
 11
8.5855168743
 21
114.9514718418
 31
0.0
  0
SPLINE
  5
D4
330
1F
100
AcDbEntity
  8
0
  6
Continuous
 62
     7
370
    25
100
AcDbSpline
210
0.0
220
0.0
230
1.0
 70
     8
 71
     3
 72
    22
 73
    18
 74
     0
 42
0.00000001
 43
0.00000001
 40
0.0
 40
0.0
 40
0.0
 40
0.0
 40
0.0706790385058424
 40
0.1433442529555861
 40
0.2140439054233474
 40
0.2869479128032157
 40
0.3550091950822316
 40
0.4251447352634906
 40
0.4917315089935215
 40
0.5601159570825576
 40
0.6292877475527188
 40
0.7003057469909043
 40
0.772309068195007
 40
0.8464483372095096
 40
0.9174276563523953
 40
0.9906474067990476
 40
1.0
 40
1.0
 40
1.0
 40
1.0
 10
6.423799620490563
 20
115.5499209493966
 30
0.0
 10
6.127382046257689
 20
115.6158866223206
 30
0.0
 10
5.526217165699704
 20
115.749671692207
 30
0.0
 10
4.471735969404131
 20
115.9289066281557
 30
0.0
 10
3.322993165404784
 20
116.0675810211794
 30
0.0
 10
2.134569273911032
 20
116.1449022798311
 30
0.0
 10
0.9270737237746691
 20
116.1544757926308
 30
0.0
 10
-0.2323313916212794
 20
116.0984010477077
 30
0.0
 10
-1.346775915127149
 20
115.9846313860893
 30
0.0
 10
-2.382730896711531
 20
115.8275971285222
 30
0.0
 10
-3.339447537423809
 20
115.6392123283856
 30
0.0
 10
-4.185633523362639
 20
115.4387132535166
 30
0.0
 10
-4.895914138708185
 20
115.246612043656
 30
0.0
 10
-5.433767240147713
 20
115.0867182468664
 30
0.0
 10
-5.759965601041861
 20
114.9841193044575
 30
0.0
 10
-5.895608060963467
 20
114.9402023807198
 30
0.0
 10
-5.864380090131016
 20
114.9502533100261
 30
0.0
 10
-5.86084304013601
 20
114.9513917330009
 30
0.0
  0
SPLINE
  5
D5
330
1F
100
AcDbEntity
  8
0
  6
Continuous
 62
     7
370
    25
100
AcDbSpline
210
0.0
220
0.0
230
1.0
 70
     8
 71
     3
 72
    12
 73
     8
 74
     0
 42
0.00000001
 43
0.00000001
 40
0.0
 40
0.0
 40
0.0
 40
0.0
 40
0.1827795997261316
 40
0.3818717628142839
 40
0.5865246976966021
 40
0.790515182376996
 40
1.0
 40
1.0
 40
1.0
 40
1.0
 10
8.573481928483332
 20
114.9516944021783
 30
0.0
 10
8.563474333457517
 20
114.9549469770012
 30
0.0
 10
8.542565993797261
 20
114.9617424097693
 30
0.0
 10
8.275920091126913
 20
115.0468778562374
 30
0.0
 10
7.838260288345215
 20
115.1793670080571
 30
0.0
 10
7.228822626648951
 20
115.3535834190874
 30
0.0
 10
6.694507314664206
 20
115.483897892039
 30
0.0
 10
6.423799620490563
 20
115.5499209493966
 30
0.0
  0
SPLINE
  5
D6
330
1F
100
AcDbEntity
  8
0
  6
Continuous
 62
     7
370
    25
100
AcDbSpline
210
0.0
220
0.0
230
1.0
 70
     8
 71
     3
 72
    12
 73
     8
 74
     0
 42
0.00000001
 43
0.00000001
 40
0.0
 40
0.0
 40
0.0
 40
0.0
 40
0.2096252807822217
 40
0.425172224148505
 40
0.6348488351628655
 40
0.8509875643585607
 40
0.9999999999999999
 40
0.9999999999999999
 40
0.9999999999999999
 40
0.9999999999999999
 10
6.423799620490563
 20
159.3457642454085
 30
0.0
 10
6.694586438401175
 20
159.411819427086
 30
0.0
 10
7.243809476822586
 20
159.5457957700421
 30
0.0
 10
7.86537053541872
 20
159.724229244344
 30
0.0
 10
8.313334390755392
 20
159.8604227246231
 30
0.0
 10
8.557890085456814
 20
159.9389313259535
 30
0.0
 10
8.564278220708456
 20
159.9410098443365
 30
0.0
 10
8.56688511802858
 20
159.9418580549315
 30
0.0
  0
SPLINE
  5
D7
330
1F
100
AcDbEntity
  8
0
  6
Continuous
 62
     7
370
    25
100
AcDbSpline
210
0.0
220
0.0
230
1.0
 70
     8
 71
     3
 72
    22
 73
    18
 74
     0
 42
0.00000001
 43
0.00000001
 40
0.0
 40
0.0
 40
0.0
 40
0.0
 40
0.0217517894681316
 40
0.0894036411551592
 40
0.1590003016659972
 40
0.2271272264044227
 40
0.2970780263431488
 40
0.3680382555100196
 40
0.4409848268234773
 40
0.5130063927771242
 40
0.5872884437465888
 40
0.6563517979650387
 40
0.7275823236807515
 40
0.7941230077059814
 40
0.8625096753705674
 40
0.9303700936542053
 40
1.0
 40
1.0
 40
1.0
 40
1.0
 10
-5.849667611430215
 20
159.940687004817
 30
0.0
 10
-5.856103807463174
 20
159.9427607202192
 30
0.0
 10
-5.882557693538979
 20
159.951284051504
 30
0.0
 10
-5.731151149362714
 20
159.9023721706988
 30
0.0
 10
-5.405681074446555
 20
159.8004257319562
 30
0.0
 10
-4.886670793922756
 20
159.6467808923534
 30
0.0
 10
-4.206469951317279
 20
159.4624564688594
 30
0.0
 10
-3.359046936769694
 20
159.2604907547085
 30
0.0
 10
-2.369431264296187
 20
159.0649139844697
 30
0.0
 10
-1.252446104549245
 20
158.8976498979315
 30
0.0
 10
-0.0729003166441977
 20
158.7847259756635
 30
0.0
 10
1.146469627011416
 20
158.737513797434
 30
0.0
 10
2.328817159256386
 20
158.759447462911
 30
0.0
 10
3.477927702691529
 20
158.8444138899312
 30
0.0
 10
4.547568510358493
 20
158.9789782632395
 30
0.0
 10
5.555840886690596
 20
159.1524566007166
 30
0.0
 10
6.132008301690157
 20
159.2807778694642
 30
0.0
 10
6.423799620490563
 20
159.3457642454085
 30
0.0
  0
LINE
  5
D8
330
1F
100
AcDbEntity
  8
0
  6
Continuous
 62
     7
370
    25
100
AcDbLine
 10
-8.4067793054
 20
158.9478425974
 30
0.0
 11
-8.4067793054
 21
115.9478425974
 31
0.0
  0
LINE
  5
D9
330
1F
100
AcDbEntity
  8
0
  6
Continuous
 62
     7
370
    25
100
AcDbLine
 10
-5.643207825
 20
173.0478425974
 30
0.0
 11
8.356792175
 21
173.0478425974
 31
0.0
  0
LINE
  5
DA
330
1F
100
AcDbEntity
  8
0
  6
Continuous
 62
     7
370
    25
100
AcDbLine
 10
-5.643207825
 20
101.8478425974
 30
0.0
 11
8.356792175
 21
101.8478425974
 31
0.0
  0
LINE
  5
DB
330
1F
100
AcDbEntity
  8
0
  6
Continuous
 62
     7
370
    25
100
AcDbLine
 10
-7.4067793054
 20
159.9478425974
 30
0.0
 11
-7.4067793054
 21
114.9478425974
 31
0.0
  0
LINE
  5
DC
330
1F
100
AcDbEntity
  8
0
  6
Continuous
 62
     7
370
    25
100
AcDbLine
 10
55.6927526742
 20
159.9478425974
 30
0.0
 11
55.6927526742
 21
114.9478425974
 31
0.0
  0
LINE
  5
DD
330
1F
100
AcDbEntity
  8
0
  6
Continuous
 62
     7
370
    25
100
AcDbLine
 10
58.5628809718
 20
157.8209769258
 30
0.0
 11
58.5628809718
 21
117.074708269
 31
0.0
  0
SPLINE
  5
DE
330
1F
100
AcDbEntity
  8
0
  6
Continuous
 62
     7
370
    25
100
AcDbSpline
210
0.0
220
0.0
230
1.0
 70
     8
 71
     3
 72
    65
 73
    61
 74
     0
 42
0.00000001
 43
0.00000001
 40
0.0
 40
0.0
 40
0.0
 40
0.0
 40
0.0155539702425729
 40
0.0325018204336559
 40
0.0494721023226442
 40
0.0664960137565495
 40
0.0835984138814162
 40
0.1007956012494027
 40
0.1180944498931015
 40
0.1354929626353882
 40
0.1529820057594723
 40
0.1705477387872923
 40
0.1881741548850977
 40
0.2058452401084746
 40
0.2235464806732278
 40
0.2412656823167641
 40
0.2589932264253995
 40
0.2767206410256138
 40
0.2944429484968222
 40
0.3121573593155277
 40
0.3298623195547987
 40
0.3475571944942997
 40
0.3652420147051587
 40
0.3829172807332016
 40
0.4005838176241344
 40
0.4182426694583867
 40
0.4358950247863836
 40
0.4535421652622793
 40
0.4711854312836865
 40
0.4888261997904308
 40
0.5064658704600646
 40
0.5241058573460886
 40
0.5417471745572114
 40
0.5593911865879273
 40
0.5770393235193223
 40
0.5946930092806328
 40
0.6123536495082488
 40
0.630022611769358
 40
0.6477011945057498
 40
0.6653905799981715
 40
0.6830917652796845
 40
0.7008054633032101
 40
0.7185319649760044
 40
0.7362709513537579
 40
0.7540212452439493
 40
0.7717804943531189
 40
0.7895447848770483
 40
0.8073057523664245
 40
0.8250541978347046
 40
0.8427781159071807
 40
0.8604627566499553
 40
0.8780912324538653
 40
0.8956458628795306
 40
0.9131103141757243
 40
0.9304723303584165
 40
0.9477265469546161
 40
0.9648766825168966
 40
0.98193645749456
 40
0.9989289008096464
 40
1.0
 40
1.0
 40
1.0
 40
1.0
 10
59.4967158871997
 20
18.84307582857044
 30
0.0
 10
59.69063422119369
 20
18.96135570235396
 30
0.0
 10
60.09584901664281
 20
19.20851518373867
 30
0.0
 10
60.66829330114852
 20
19.65533033372997
 30
0.0
 10
61.22183600180922
 20
20.16487968964637
 30
0.0
 10
61.73517255767131
 20
20.72972444202141
 30
0.0
 10
62.20801809921907
 20
21.34689677714753
 30
0.0
 10
62.63872736743772
 20
22.01551304851882
 30
0.0
 10
63.02595622897974
 20
22.73386225737842
 30
0.0
 10
63.36827964571643
 20
23.50008363010502
 30
0.0
 10
63.66438849096478
 20
24.31193179832716
 30
0.0
 10
63.91313178958835
 20
25.16685017440832
 30
0.0
 10
64.11358032907555
 20
26.06201120067304
 30
0.0
 10
64.26505216974573
 20
26.99439279240589
 30
0.0
 10
64.36711573012046
 20
27.96084802646964
 30
0.0
 10
64.41957411530824
 20
28.95816208836239
 30
0.0
 10
64.42244064528896
 20
29.98306500395635
 30
0.0
 10
64.37591836476001
 20
31.03227610779554
 30
0.0
 10
64.28037592716213
 20
32.10252266153215
 30
0.0
 10
64.13632192721758
 20
33.19056757174647
 30
0.0
 10
63.94439065186253
 20
34.29317896897655
 30
0.0
 10
63.70533532772959
 20
35.40711599873774
 30
0.0
 10
63.42002360938917
 20
36.52912765831365
 30
0.0
 10
63.08943475826651
 20
37.65595364425949
 30
0.0
 10
62.71465768419732
 20
38.78432719916484
 30
0.0
 10
62.29688925423746
 20
39.91097972246936
 30
0.0
 10
61.83743246891279
 20
41.03264682263586
 30
0.0
 10
61.33769425514048
 20
42.1460754755722
 30
0.0
 10
60.79918273217859
 20
43.24803197740572
 30
0.0
 10
60.22350388044822
 20
44.3353104168046
 30
0.0
 10
59.61235759474823
 20
45.40474142713076
 30
0.0
 10
58.96753811534989
 20
46.45319291699001
 30
0.0
 10
58.29092585619928
 20
47.4775864977077
 30
0.0
 10
57.5844808751692
 20
48.4749077183076
 30
0.0
 10
56.85023058627424
 20
49.44222155154797
 30
0.0
 10
56.09026730236977
 20
50.37667292595133
 30
0.0
 10
55.30674239869623
 20
51.27549231974707
 30
0.0
 10
54.5018595983735
 20
52.1360017917409
 30
0.0
 10
53.67786842407607
 20
52.95562007141837
 30
0.0
 10
52.8370581089578
 20
53.73186659565474
 30
0.0
 10
51.98175235341923
 20
54.46236441749698
 30
0.0
 10
51.11430542952014
 20
55.14484198619796
 30
0.0
 10
50.23710026507064
 20
55.77713392922281
 30
0.0
 10
49.35254926661142
 20
56.35718118519072
 30
0.0
 10
48.46309871503931
 20
56.88303118031538
 30
0.0
 10
47.57123755869366
 20
57.35283921188791
 30
0.0
 10
46.67955208907276
 20
57.76485394295701
 30
0.0
 10
45.79071690548738
 20
58.11745304620347
 30
0.0
 10
44.90751451217029
 20
58.40916827900758
 30
0.0
 10
44.03281163352896
 20
58.63872931696964
 30
0.0
 10
43.16959081369775
 20
58.80509879866563
 30
0.0
 10
42.32093770705077
 20
58.90752385494007
 30
0.0
 10
41.48998683845556
 20
58.94561324449533
 30
0.0
 10
40.67989168499236
 20
58.91931123966916
 30
0.0
 10
39.89357470049824
 20
58.82917625529338
 30
0.0
 10
39.13420587688778
 20
58.67537923921918
 30
0.0
 10
38.40298840526712
 20
58.46123453724168
 30
0.0
 10
37.70701809589852
 20
58.1797591021732
 30
0.0
 10
37.24084376435373
 20
57.96162113762585
 30
0.0
 10
37.01745838171915
 20
57.82138314859053
 30
0.0
 10
37.00421248034601
 20
57.81306757059872
 30
0.0
  0
LINE
  5
DF
330
1F
100
AcDbEntity
  8
0
  6
Continuous
 62
     7
370
    25
100
AcDbLine
 10
14.8472120032
 20
-6.9355851988
 30
0.0
 11
35.179699982
 21
4.8021102675
 31
0.0
  0
LINE
  5
E0
330
1F
100
AcDbEntity
  8
0
  6
Continuous
 62
     7
370
    25
100
AcDbLine
 10
49.174321192
 20
12.8810331273
 30
0.0
 11
59.4653189557
 21
18.8218996814
 31
0.0
  0
LINE
  5
E1
330
1F
100
AcDbEntity
  8
0
  6
Continuous
 62
     7
370
    25
100
AcDbLine
 10
36.9671474713
 20
57.7940984885
 30
0.0
 11
-7.6509594811
 21
32.0366136083
 31
0.0
  0
LINE
  5
E2
330
1F
100
AcDbEntity
  8
0
  6
Continuous
 62
     7
370
    25
100
AcDbLine
 10
34.7813031626
 20
16.7765609819
 30
0.0
 11
35.019985428
 21
5.6119522668
 31
0.0
  0
LINE
  5
E3
330
1F
100
AcDbEntity
  8
0
  6
Continuous
 62
     7
370
    25
100
AcDbLine
 10
49.0189193565
 20
5.6119522668
 30
0.0
 11
49.2581147002
 21
16.8005607461
 31
0.0
  0
LINE
  5
E4
330
1F
100
AcDbEntity
  8
0
  6
Continuous
 62
     7
370
    25
100
AcDbLine
 10
49.1770774501
 20
56.4513873878
 30
0.0
 11
49.0189193565
 21
63.8493950579
 31
0.0
  0
LINE
  5
E5
330
1F
100
AcDbEntity
  8
0
  6
Continuous
 62
     7
370
    25
100
AcDbLine
 10
35.019985428
 20
63.8493950579
 30
0.0
 11
34.8645835925
 21
56.5803141974
 31
0.0
  0
SPLINE
  5
E6
330
1F
100
AcDbEntity
  8
0
  6
Continuous
 62
     7
370
    25
100
AcDbSpline
210
0.0
220
0.0
230
1.0
 70
     8
 71
     3
 72
    23
 73
    19
 74
     0
 42
0.00000001
 43
0.00000001
 40
0.0
 40
0.0
 40
0.0
 40
0.0
 40
0.0114806489744382
 40
0.0748850775155641
 40
0.138248481629312
 40
0.2017604425229086
 40
0.2656249019574541
 40
0.3300254888045702
 40
0.3951154255974882
 40
0.4610075104999968
 40
0.527765447135963
 40
0.5953985330867632
 40
0.6638618960225992
 40
0.7330636132050594
 40
0.8028781729529443
 40
0.8731636049001492
 40
0.9437784098369074
 40
1.0
 40
1.0
 40
1.0
 40
1.0
 10
-7.63123073860324
 20
32.04218186508298
 30
0.0
 10
-7.673901226340752
 20
32.01949374161992
 30
0.0
 10
-7.952228940128068
 20
31.87150542771912
 30
0.0
 10
-8.433489881085565
 20
31.5413756616432
 30
0.0
 10
-9.068842117976866
 20
31.05160519490452
 30
0.0
 10
-9.661306145455594
 20
30.50303038531083
 30
0.0
 10
-10.21348518783924
 20
29.90379419274587
 30
0.0
 10
-10.72322066570338
 20
29.25316494580075
 30
0.0
 10
-11.18954369549197
 20
28.5526402595414
 30
0.0
 10
-11.61099772242603
 20
27.8031357713512
 30
0.0
 10
-11.98609322734512
 20
27.00595569622085
 30
0.0
 10
-12.31323260453076
 20
26.16274039931231
 30
0.0
 10
-12.59087611011259
 20
25.27566788189841
 30
0.0
 10
-12.81753261398562
 20
24.3474415322144
 30
0.0
 10
-12.9923663852685
 20
23.38144611107012
 30
0.0
 10
-13.11347450883462
 20
22.38091081196972
 30
0.0
 10
-13.17984619070537
 20
21.42241105165419
 30
0.0
 10
-13.18719744840836
 20
20.79056556994777
 30
0.0
 10
-13.190455972095
 20
20.51049329502278
 30
0.0
  0
SPLINE
  5
E7
330
1F
100
AcDbEntity
  8
0
  6
Continuous
 62
     7
370
    25
100
AcDbSpline
210
0.0
220
0.0
230
1.0
 70
     8
 71
     3
 72
    50
 73
    46
 74
     0
 42
0.00000001
 43
0.00000001
 40
0.0
 40
0.0
 40
0.0
 40
0.0
 40
0.0131083101249578
 40
0.0375031516052251
 40
0.0618730641695894
 40
0.0862186641301257
 40
0.1105308198132519
 40
0.1348050885019035
 40
0.1590404871679708
 40
0.1832385060397587
 40
0.2074023524512867
 40
0.2315363956227755
 40
0.2556457729449198
 40
0.2797361193838619
 40
0.303813387071899
 40
0.327883728465119
 40
0.3519534220149253
 40
0.3760278030306595
 40
0.4001121722886198
 40
0.4242129437171954
 40
0.4483364986456927
 40
0.4724891144098421
 40
0.4966768516817522
 40
0.5209053786083444
 40
0.5451797039388767
 40
0.5695037838680854
 40
0.5938799598047688
 40
0.6183081796588284
 40
0.6427849595922748
 40
0.6673020673562758
 40
0.6918449689169839
 40
0.7163830083664084
 40
0.7408799377912434
 40
0.7652912054110725
 40
0.7895643925332704
 40
0.8136432681293866
 40
0.8374740155604024
 40
0.8610125463344948
 40
0.8842311253475034
 40
0.9071226113453476
 40
0.929701499937146
 40
0.9520020866936578
 40
0.9740747952103123
 40
0.9959818040096489
 40
1.0
 40
1.0
 40
1.0
 40
1.0
 10
-13.190455972095
 20
20.51049329502278
 30
0.0
 10
-13.18891613422873
 20
20.31903018762903
 30
0.0
 10
-13.1845106256318
 20
19.77125020112081
 30
0.0
 10
-13.13639343726241
 20
18.85177487177948
 30
0.0
 10
-13.03039685586833
 20
17.74920174082427
 30
0.0
 10
-12.87281760173067
 20
16.63312697227733
 30
0.0
 10
-12.66561599142215
 20
15.50706845960772
 30
0.0
 10
-12.40969204801479
 20
14.37417703635096
 30
0.0
 10
-12.10632758365764
 20
13.237652821849
 30
0.0
 10
-11.75678023983531
 20
12.10060373474082
 30
0.0
 10
-11.36238604776114
 20
10.96610886407691
 30
0.0
 10
-10.92453058553627
 20
9.837218642912076
 30
0.0
 10
-10.44465724431046
 20
8.716964426796173
 30
0.0
 10
-9.924265859785196
 20
7.608359493411421
 30
0.0
 10
-9.364913185694316
 20
6.514397786773086
 30
0.0
 10
-8.768211597889843
 20
5.438050114139517
 30
0.0
 10
-8.135835705126546
 20
4.38227399407104
 30
0.0
 10
-7.469522135014808
 20
3.35000725877007
 30
0.0
 10
-6.771056512047989
 20
2.344144201970152
 30
0.0
 10
-6.042256253101872
 20
1.367516302261458
 30
0.0
 10
-5.284960996775879
 20
0.4228893159464314
 30
0.0
 10
-4.501036707266207
 20
-0.4870230536422292
 30
0.0
 10
-3.692370300171107
 20
-1.359559045802011
 30
0.0
 10
-2.860865855249393
 20
-2.192106147143508
 30
0.0
 10
-2.008443700308688
 20
-2.982095459837506
 30
0.0
 10
-1.137044075180577
 20
-3.726993014545047
 30
0.0
 10
-0.248637568854862
 20
-4.424288345511427
 30
0.0
 10
0.6547550386491984
 20
-5.071481422720129
 30
0.0
 10
1.571030745484477
 20
-5.666070309850484
 30
0.0
 10
2.497957842827175
 20
-6.205543784635868
 30
0.0
 10
3.433010689765582
 20
-6.687332023732413
 30
0.0
 10
4.373341272227185
 20
-7.108889582814522
 30
0.0
 10
5.315727598902209
 20
-7.467782719558977
 30
0.0
 10
6.256639717075192
 20
-7.761828217437195
 30
0.0
 10
7.19220674303028
 20
-7.989198273423505
 30
0.0
 10
8.118287334487828
 20
-8.14856286101769
 30
0.0
 10
9.030622276732549
 20
-8.23921075065485
 30
0.0
 10
9.925041982191521
 20
-8.261131083299972
 30
0.0
 10
10.79762343828762
 20
-8.214933234578492
 30
0.0
 10
11.64496529752714
 20
-8.10197002023243
 30
0.0
 10
12.46376578032203
 20
-7.923368726628615
 30
0.0
 10
13.25259189075198
 20
-7.682849257757137
 30
0.0
 10
14.00528872261081
 20
-7.375618203569713
 30
0.0
 10
14.53759550978558
 20
-7.122416293317499
 30
0.0
 10
14.80715977866108
 20
-6.954717655727947
 30
0.0
 10
14.84894004898582
 20
-6.928725730162992
 30
0.0
  0
LWPOLYLINE
  5
E8
330
1F
100
AcDbEntity
  8
0
  6
Continuous
 62
     7
370
    25
100
AcDbPolyline
 90
      107
 70
   128
 43
0.0
 10
33.7205441992
 20
47.4925903429
 10
33.7472443865
 20
48.5171830464
 10
33.8272511632
 20
49.5073494505
 10
33.9602835024
 20
50.4596115596
 10
34.1458741234
 20
51.3706245183
 10
34.3833711321
 20
52.2371883605
 10
34.6719403118
 20
53.0562592489
 10
35.0105680526
 20
53.8249601672
 10
35.3980649123
 20
54.5405910255
 10
35.833069794
 20
55.2006381441
 10
36.3140547271
 20
55.8027830837
 10
36.8393302347
 20
56.3449107879
 10
37.4070512673
 20
56.8251170137
 10
38.015223684
 20
57.241715019
 10
38.6617112572
 20
57.5932414881
 10
39.3442431755
 20
57.8784616717
 10
40.0604220207
 20
58.0963737232
 10
40.8077321886
 20
58.2462122188
 10
41.5835487249
 20
58.3274508451
 10
42.3851465457
 20
58.3398042487
 10
43.2097100095
 20
58.2832290377
 10
44.0543428069
 20
58.1579239346
 10
44.9160781346
 20
57.9643290781
 10
45.7918891157
 20
57.7031244773
 10
46.6786994322
 20
57.3752276228
 10
47.5733941306
 20
56.9817902642
 10
48.4728305631
 20
56.5241943648
 10
49.3738494263
 20
56.0040472467
 10
50.2732858588
 20
55.4231759456
 10
51.1679805571
 20
54.7836207933
 10
52.0547908736
 20
54.0876282504
 10
52.9306018547
 20
53.3376430163
 10
53.7923371824
 20
52.5362994413
 10
54.6369699799
 20
51.686412274
 10
55.4615334436
 20
50.7909667741
 10
56.2631312645
 20
49.8531082265
 10
57.0389478007
 20
48.8761308937
 10
57.7862579686
 20
47.863466444
 10
58.5024368139
 20
46.8186718984
 10
59.1849687322
 20
45.7454171358
 10
59.8314563053
 20
44.6474720027
 10
60.4396287221
 20
43.5286930714
 10
61.0073497546
 20
42.3930100936
 10
61.5326252622
 20
41.2444121974
 10
62.0136101954
 20
40.0869338746
 10
62.4486150771
 20
38.9246408102
 10
62.8361119368
 20
37.7616156008
 10
63.1747396776
 20
36.601943415
 10
63.4633088573
 20
35.4496976435
 10
63.700805866
 20
34.3089255918
 10
63.8863964869
 20
33.1836342632
 10
64.0194288262
 20
32.0777762845
 10
64.0994356028
 20
30.9952360223
 10
64.1261357902
 20
29.9398159387
 10
64.0994356028
 20
28.9152232353
 10
64.0194288262
 20
27.9250568312
 10
63.8863964869
 20
26.9727947221
 10
63.700805866
 20
26.0617817633
 10
63.4633088573
 20
25.1952179212
 10
63.1747396776
 20
24.3761470328
 10
62.8361119368
 20
23.6074461144
 10
62.4486150771
 20
22.8918152562
 10
62.0136101954
 20
22.2317681375
 10
61.5326252622
 20
21.629623198
 10
61.0073497546
 20
21.0874954937
 10
60.4396287221
 20
20.607289268
 10
59.8314563053
 20
20.1906912627
 10
59.1849687322
 20
19.8391647935
 10
58.5024368139
 20
19.55394461
 10
57.7862579686
 20
19.3360325585
 10
57.0389478007
 20
19.1861940629
 10
56.2631312645
 20
19.1049554365
 10
55.4615334436
 20
19.092602033
 10
54.6369699799
 20
19.149177244
 10
53.7923371824
 20
19.2744823471
 10
52.9306018547
 20
19.4680772036
 10
52.0547908736
 20
19.7292818044
 10
51.1679805571
 20
20.0571786589
 10
50.2732858588
 20
20.4506160174
 10
49.3738494263
 20
20.9082119169
 10
48.4728305631
 20
21.428359035
 10
47.5733941306
 20
22.009230336
 10
46.6786994322
 20
22.6487854884
 10
45.7918891157
 20
23.3447780312
 10
44.9160781346
 20
24.0947632654
 10
44.0543428069
 20
24.8961068404
 10
43.2097100095
 20
25.7459940077
 10
42.3851465457
 20
26.6414395076
 10
41.5835487249
 20
27.5792980552
 10
40.8077321886
 20
28.556275388
 10
40.0604220207
 20
29.5689398376
 10
39.3442431755
 20
30.6137343832
 10
38.6617112572
 20
31.6869891458
 10
38.015223684
 20
32.784934279
 10
37.4070512673
 20
33.9037132103
 10
36.8393302347
 20
35.039396188
 10
36.3140547271
 20
36.1879940843
 10
35.833069794
 20
37.345472407
 10
35.3980649123
 20
38.5077654715
 10
35.0105680526
 20
39.6707906809
 10
34.6719403118
 20
40.8304628667
 10
34.3833711321
 20
41.9827086381
 10
34.1458741234
 20
43.1234806899
 10
33.9602835024
 20
44.2487720185
 10
33.8272511632
 20
45.3546299971
 10
33.7472443865
 20
46.4371702593
 10
33.7205441992
 20
47.4925903429
  0
LINE
  5
E9
330
1F
100
AcDbEntity
  8
0
  6
Continuous
 62
     7
370
    25
100
AcDbLine
 10
36.9671474713
 20
57.7940984885
 30
0.0
 11
37.0003608581
 21
57.8131592974
 31
0.0
  0
LINE
  5
EA
330
1F
100
AcDbEntity
  8
0
  6
Continuous
 62
     7
370
    25
100
AcDbLine
 10
59.4953209891
 20
18.8393121049
 30
0.0
 11
59.4653189557
 21
18.8218996814
 31
0.0
  0
SPLINE
  5
EB
330
1F
100
AcDbEntity
  8
0
  6
Continuous
 62
     7
370
    25
100
AcDbSpline
210
0.0
220
0.0
230
1.0
 70
     8
 71
     3
 72
    27
 73
    23
 74
     0
 42
0.00000001
 43
0.00000001
 40
0.0
 40
0.0
 40
0.0
 40
0.0
 40
0.0295661943794369
 40
0.0837313135974947
 40
0.1378855529382746
 40
0.1913284044111338
 40
0.2447626117372874
 40
0.2959358740170145
 40
0.3471147682772934
 40
0.3979805984462104
 40
0.4488560758624107
 40
0.5016914709690894
 40
0.5545265855635404
 40
0.6088371411398419
 40
0.6631324820624684
 40
0.7157808091047738
 40
0.7684229423921323
 40
0.8186110133783926
 40
0.8688089413926678
 40
0.9195299339136023
 40
0.9702601707266
 40
1.0
 40
1.0
 40
1.0
 40
1.0
 10
49.23412075932706
 20
16.80092380348148
 30
0.0
 10
49.23955048092475
 20
16.90003898808516
 30
0.0
 10
49.25492742514722
 20
17.18073269177318
 30
0.0
 10
49.05304466427371
 20
17.64515648056354
 30
0.0
 10
48.65064454824192
 20
18.18954811501233
 30
0.0
 10
48.04277371567979
 20
18.72751695112705
 30
0.0
 10
47.27939990547965
 20
19.24116567738613
 30
0.0
 10
46.37854703561929
 20
19.72105308223195
 30
0.0
 10
45.38219764504328
 20
20.15266546690429
 30
0.0
 10
44.3024196612654
 20
20.52628228483433
 30
0.0
 10
43.15693756158448
 20
20.83092408390847
 30
0.0
 10
41.96833307194918
 20
21.04453758620621
 30
0.0
 10
40.75469442257043
 20
21.14924990618039
 30
0.0
 10
39.56225449974828
 20
21.11633300519806
 30
0.0
 10
38.43526620959206
 20
20.93513062678045
 30
0.0
 10
37.42045690342437
 20
20.59561500427386
 30
0.0
 10
36.55419503691262
 20
20.12264008776336
 30
0.0
 10
35.85299331287712
 20
19.52623518730001
 30
0.0
 10
35.31504973098878
 20
18.83926050333694
 30
0.0
 10
34.96105303800522
 20
18.07335773637162
 30
0.0
 10
34.77953975092138
 20
17.37271717603553
 30
0.0
 10
34.79939532687352
 20
16.93773072048916
 30
0.0
 10
34.80673347716542
 20
16.77697003576074
 30
0.0
  0
LWPOLYLINE
  5
EC
330
1F
100
AcDbEntity
  8
0
  6
Continuous
 62
     7
370
    25
100
AcDbPolyline
 90
       93
 70
   128
 43
0.0
 10
37.5035654785
 20
45.3086986438
 10
37.5301876087
 20
46.1932518723
 10
37.6099298746
 20
47.0429436481
 10
37.742420481
 20
47.8538123159
 10
37.9270416955
 20
48.6220772316
 10
38.1629327287
 20
49.3441563896
 10
38.4489937478
 20
50.0166831234
 10
38.7838910043
 20
50.6365218031
 10
39.1660630525
 20
51.2007824545
 10
39.59372803
 20
51.706834234
 10
40.0648919652
 20
52.1523176947
 10
40.5773580743
 20
52.5351557869
 10
41.1287370038
 20
52.8535635428
 10
41.7164579706
 20
53.1060563985
 10
42.3377807482
 20
53.2914571156
 10
42.9898084431
 20
53.4089012705
 10
43.669501001
 20
53.4578412842
 10
44.3736893816
 20
53.438048976
 10
45.0990903336
 20
53.3496166265
 10
45.8423217029
 20
53.1929565484
 10
46.5999182017
 20
52.9687991631
 10
47.3683475654
 20
52.6781895959
 10
48.1440270216
 20
52.3224828027
 10
48.9233399947
 20
51.9033372528
 10
49.7026529677
 20
51.4227071962
 10
50.478332424
 20
50.8828335522
 10
51.2467617877
 20
50.2862334609
 10
52.0043582865
 20
49.6356885472
 10
52.7475896557
 20
48.934231952
 10
53.4729906077
 20
48.1851341896
 10
54.1771789883
 20
47.3918878996
 10
54.8568715463
 20
46.5581915624
 10
55.5088992411
 20
45.6879322552
 10
56.1302220188
 20
44.7851675286
 10
56.7179429855
 20
43.8541064884
 10
57.269321915
 20
42.8990901711
 10
57.7817880242
 20
41.9245713035
 10
58.2529519594
 20
40.9350935426
 10
58.6806169368
 20
39.9352702902
 10
59.0627889851
 20
38.9297631841
 10
59.3976862415
 20
37.9232603625
 10
59.6837472607
 20
36.9204546062
 10
59.9196382939
 20
35.9260214585
 10
60.1042595084
 20
34.9445974258
 10
60.2367501147
 20
33.9807583599
 10
60.3164923807
 20
33.0389981237
 10
60.3431145108
 20
32.1237076379
 10
60.3164923807
 20
31.2391544093
 10
60.2367501147
 20
30.3894626335
 10
60.1042595084
 20
29.5785939657
 10
59.9196382939
 20
28.81032905
 10
59.6837472607
 20
28.0882498921
 10
59.3976862415
 20
27.4157231582
 10
59.0627889851
 20
26.7958844786
 10
58.6806169368
 20
26.2316238272
 10
58.2529519594
 20
25.7255720476
 10
57.7817880242
 20
25.280088587
 10
57.269321915
 20
24.8972504948
 10
56.7179429855
 20
24.5788427389
 10
56.1302220188
 20
24.3263498832
 10
55.5088992411
 20
24.1409491661
 10
54.8568715463
 20
24.0235050112
 10
54.1771789883
 20
23.9745649974
 10
53.4729906077
 20
23.9943573057
 10
52.7475896557
 20
24.0827896551
 10
52.0043582865
 20
24.2394497333
 10
51.2467617877
 20
24.4636071186
 10
50.478332424
 20
24.7542166858
 10
49.7026529677
 20
25.109923479
 10
48.9233399947
 20
25.5290690289
 10
48.1440270216
 20
26.0096990854
 10
47.3683475654
 20
26.5495727294
 10
46.5999182017
 20
27.1461728208
 10
45.8423217029
 20
27.7967177344
 10
45.0990903336
 20
28.4981743297
 10
44.3736893816
 20
29.2472720921
 10
43.669501001
 20
30.0405183821
 10
42.9898084431
 20
30.8742147192
 10
42.3377807482
 20
31.7444740265
 10
41.7164579706
 20
32.6472387531
 10
41.1287370038
 20
33.5782997933
 10
40.5773580743
 20
34.5333161106
 10
40.0648919652
 20
35.5078349781
 10
39.59372803
 20
36.4973127391
 10
39.1660630525
 20
37.4971359914
 10
38.7838910043
 20
38.5026430975
 10
38.4489937478
 20
39.5091459191
 10
38.1629327287
 20
40.5119516755
 10
37.9270416955
 20
41.5063848232
 10
37.742420481
 20
42.4878088559
 10
37.6099298746
 20
43.4516479217
 10
37.5301876087
 20
44.393408158
 10
37.5035654785
 20
45.3086986438
  0
LWPOLYLINE
  5
ED
330
1F
100
AcDbEntity
  8
0
  6
Continuous
 62
     7
370
    25
100
AcDbPolyline
 90
       61
 70
   128
 43
0.0
 10
37.069704924
 20
2.8043923678
 10
36.5794306621
 20
3.1187282582
 10
36.1487584167
 20
3.4609268022
 10
35.782406723
 20
3.8272388009
 10
35.4843894068
 20
4.2136508635
 10
35.2579716083
 20
4.6159293785
 10
35.1056340081
 20
5.0296668983
 10
35.029045649
 20
5.4503304281
 10
35.029045649
 20
5.8733110903
 10
35.1056340081
 20
6.2939746201
 10
35.2579716083
 20
6.70771214
 10
35.4843894068
 20
7.109990655
 10
35.782406723
 20
7.4964027175
 10
36.1487584167
 20
7.8627147163
 10
36.5794306621
 20
8.2049132602
 10
37.069704924
 20
8.5192491506
 10
37.6142096549
 20
8.8022784575
 10
38.2069791472
 20
9.0509002528
 10
38.8415188941
 20
9.2623905838
 10
39.5108767455
 20
9.4344323184
 10
40.2077190766
 20
9.5651405313
 10
40.924411137
 20
9.653083156
 10
41.6531006986
 20
9.6972966746
 10
42.385804086
 20
9.6972966746
 10
43.1144936476
 20
9.653083156
 10
43.831185708
 20
9.5651405313
 10
44.5280280391
 20
9.4344323184
 10
45.1973858905
 20
9.2623905838
 10
45.8319256374
 20
9.0509002528
 10
46.4246951296
 20
8.8022784575
 10
46.9691998606
 20
8.5192491506
 10
47.4594741225
 20
8.2049132602
 10
47.8901463679
 20
7.8627147163
 10
48.2564980616
 20
7.4964027175
 10
48.5545153778
 20
7.109990655
 10
48.7809331763
 20
6.70771214
 10
48.9332707764
 20
6.2939746201
 10
49.0098591356
 20
5.8733110903
 10
49.0098591356
 20
5.4503304281
 10
48.9332707764
 20
5.0296668983
 10
48.7809331763
 20
4.6159293785
 10
48.5545153778
 20
4.2136508635
 10
48.2564980616
 20
3.8272388009
 10
47.8901463679
 20
3.4609268022
 10
47.4594741225
 20
3.1187282582
 10
46.9691998606
 20
2.8043923678
 10
46.4246951296
 20
2.5213630609
 10
45.8319256374
 20
2.2727412657
 10
45.1973858905
 20
2.0612509346
 10
44.5280280391
 20
1.8892092
 10
43.831185708
 20
1.7585009871
 10
43.1144936476
 20
1.6705583624
 10
42.385804086
 20
1.6263448438
 10
41.6531006986
 20
1.6263448438
 10
40.924411137
 20
1.6705583624
 10
40.2077190766
 20
1.7585009871
 10
39.5108767455
 20
1.8892092
 10
38.8415188941
 20
2.0612509346
 10
38.2069791472
 20
2.2727412657
 10
37.6142096549
 20
2.5213630609
 10
37.069704924
 20
2.8043923678
  0
LWPOLYLINE
  5
EE
330
1F
100
AcDbEntity
  8
0
  6
Continuous
 62
     7
370
    25
100
AcDbPolyline
 90
       51
 70
   128
 43
0.0
 10
38.6606951816
 20
3.7228514936
 10
38.2662160835
 20
3.9811581333
 10
37.930927764
 20
4.2659698265
 10
37.6601179203
 20
4.5727949228
 10
37.4580573853
 20
4.896794607
 10
37.3279327745
 20
5.2328592107
 10
37.2717962305
 20
5.5756887943
 10
37.2905330604
 20
5.9198767304
 10
37.3838477731
 20
6.2599949697
 10
37.5502687397
 20
6.5906796443
 10
37.7871714024
 20
6.9067156595
 10
38.0908196645
 20
7.2031189384
 10
38.4564248115
 20
7.4752150243
 10
38.878221032
 20
7.7187127994
 10
39.3495563475
 20
7.9297721583
 10
39.8629975185
 20
8.1050645688
 10
40.4104472711
 20
8.2418255649
 10
40.9832719956
 20
8.337898344
 10
41.572437904
 20
8.3917677809
 10
42.1686534979
 20
8.4025843226
 10
42.7625161012
 20
8.3701773856
 10
43.344660146
 20
8.2950580467
 10
43.9059048728
 20
8.1784109828
 10
44.4373991171
 20
8.0220757877
 10
44.9307608971
 20
7.8285179608
 10
45.3782096029
 20
7.6007900248
 10
45.7726887011
 20
7.3424833852
 10
46.1079770205
 20
7.0576716919
 10
46.3787868643
 20
6.7508465956
 10
46.5808473992
 20
6.4268469114
 10
46.7109720101
 20
6.0907823077
 10
46.767108554
 20
5.7479527241
 10
46.7483717241
 20
5.403764788
 10
46.6550570115
 20
5.0636465487
 10
46.4886360448
 20
4.7329618741
 10
46.2517333822
 20
4.4169258589
 10
45.9480851201
 20
4.12052258
 10
45.582479973
 20
3.8484264941
 10
45.1606837526
 20
3.604928719
 10
44.6893484371
 20
3.3938693602
 10
44.175907266
 20
3.2185769497
 10
43.6284575134
 20
3.0818159536
 10
43.0556327889
 20
2.9857431745
 10
42.4664668805
 20
2.9318737375
 10
41.8702512867
 20
2.9210571958
 10
41.2763886833
 20
2.9534641328
 10
40.6942446386
 20
3.0285834717
 10
40.1329999118
 20
3.1452305357
 10
39.6015056675
 20
3.3015657308
 10
39.1081438874
 20
3.4951235576
 10
38.6606951816
 20
3.7228514936
  0
LWPOLYLINE
  5
EF
330
1F
100
AcDbEntity
  8
0
  6
Continuous
 62
     7
370
    25
100
AcDbPolyline
 90
       32
 70
   128
 43
0.0
 10
35.019985428
 20
63.8493950579
 10
35.029045649
 20
64.0110168966
 10
35.1056340081
 20
64.4316804264
 10
35.2579716083
 20
64.8454179462
 10
35.4843894068
 20
65.2476964612
 10
35.782406723
 20
65.6341085238
 10
36.1487584167
 20
66.0004205225
 10
36.5794306621
 20
66.3426190665
 10
37.069704924
 20
66.6569549569
 10
37.6142096549
 20
66.9399842638
 10
38.2069791472
 20
67.188606059
 10
38.8415188941
 20
67.4000963901
 10
39.5108767455
 20
67.5721381247
 10
40.2077190766
 20
67.7028463376
 10
40.924411137
 20
67.7907889622
 10
41.6531006986
 20
67.8350024809
 10
42.385804086
 20
67.8350024809
 10
43.1144936476
 20
67.7907889622
 10
43.831185708
 20
67.7028463376
 10
44.5280280391
 20
67.5721381247
 10
45.1973858905
 20
67.4000963901
 10
45.8319256374
 20
67.188606059
 10
46.4246951296
 20
66.9399842638
 10
46.9691998606
 20
66.6569549569
 10
47.4594741225
 20
66.3426190665
 10
47.8901463679
 20
66.0004205225
 10
48.2564980616
 20
65.6341085238
 10
48.5545153778
 20
65.2476964612
 10
48.7809331763
 20
64.8454179462
 10
48.9332707764
 20
64.4316804264
 10
49.0098591356
 20
64.0110168966
 10
49.0189193565
 20
63.8493950579
  0
LWPOLYLINE
  5
F0
330
1F
100
AcDbEntity
  8
0
  6
Continuous
 62
     7
370
    25
100
AcDbPolyline
 90
       15
 70
   128
 43
0.0
 10
32.3063306368
 20
47.4925903429
 10
32.3332476739
 20
48.5452980488
 10
32.4139077064
 20
49.5633659755
 10
32.5480378063
 20
50.5433493035
 10
32.7351841198
 20
51.4819320793
 10
32.9747134031
 20
52.375938436
 10
33.2658151647
 20
53.222343339
 10
33.6075044087
 20
54.0182828221
 10
33.9986249666
 20
54.761063678
 10
34.4378534103
 20
55.4481725714
 10
34.9237035299
 20
56.0772845434
 10
35.4545313623
 20
56.646270878
 10
36.0285407541
 20
57.1532063058
 10
36.6437894392
 20
57.5963755177
 10
36.9671474713
 20
57.7940984885
  0
LWPOLYLINE
  5
F1
330
1F
100
AcDbEntity
  8
0
  6
Continuous
 62
     7
370
    25
100
AcDbPolyline
 90
       42
 70
   128
 43
0.0
 10
59.4653189557
 20
18.8218996814
 10
59.1342708161
 20
18.6417192006
 10
58.4429214611
 20
18.3303602149
 10
57.7169682303
 20
18.0865992354
 10
56.9588675196
 20
17.9112610721
 10
56.1711845018
 20
17.8049390137
 10
55.356584447
 20
17.7679928206
 10
54.5178237038
 20
17.8005475068
 10
53.6577403731
 20
17.9024929177
 10
52.7792447046
 20
18.0734841023
 10
51.8853092496
 20
18.3129424805
 10
50.9789588028
 20
18.6200578009
 10
50.0632601671
 20
18.9937908826
 10
49.1413117768
 20
19.4328771311
 10
48.2162332135
 20
19.9358308175
 10
47.2911546502
 20
20.5009501057
 10
46.3692062599
 20
21.126322811
 10
45.4535076242
 20
21.8098328701
 10
44.5471571773
 20
22.5491675012
 10
43.6532217224
 20
23.3418250302
 10
42.7747260539
 20
24.1851233546
 10
41.9146427232
 20
25.0762090201
 10
41.07588198
 20
26.0120668747
 10
40.2612819251
 20
26.9895302717
 10
39.4735989074
 20
28.0052917844
 10
38.7154981967
 20
29.0559143974
 10
37.9895449659
 20
30.1378431363
 10
37.2981956109
 20
31.2474170967
 10
36.6437894392
 20
32.3808818316
 10
36.0285407541
 20
33.5344020551
 10
35.4545313623
 20
34.7040746198
 10
34.9237035299
 20
35.8859417242
 10
34.4378534103
 20
37.076004304
 10
33.9986249666
 20
38.2702355642
 10
33.6075044087
 20
39.4645946041
 10
33.2658151647
 20
40.655040091
 10
32.9747134031
 20
41.837543934
 10
32.7351841198
 20
43.0081049145
 10
32.5480378063
 20
44.1627622246
 10
32.4139077064
 20
45.2976088696
 10
32.3332476739
 20
46.4088048876
 10
32.3063306368
 20
47.4925903429
  0
LWPOLYLINE
  5
F2
330
1F
100
AcDbEntity
  8
0
  6
Continuous
 62
     7
370
    25
100
AcDbPolyline
 90
       15
 70
   128
 43
0.0
 10
-12.3117763157
 20
21.7351054628
 10
-12.2848592786
 20
22.7878131686
 10
-12.2041992461
 20
23.8058810953
 10
-12.0700691462
 20
24.7858644233
 10
-11.8829228326
 20
25.7244471991
 10
-11.6433935494
 20
26.6184535558
 10
-11.3522917877
 20
27.4648584589
 10
-11.0106025438
 20
28.260797942
 10
-10.6194819859
 20
29.0035787979
 10
-10.1802535421
 20
29.6906876913
 10
-9.6944034226
 20
30.3197996632
 10
-9.1635755902
 20
30.8887859979
 10
-8.5895661984
 20
31.3957214256
 10
-7.9743175132
 20
31.8388906375
 10
-7.6509594811
 20
32.0366136083
  0
LWPOLYLINE
  5
F3
330
1F
100
AcDbEntity
  8
0
  6
Continuous
 62
     7
370
    25
100
AcDbPolyline
 90
       42
 70
   128
 43
0.0
 10
14.8472120032
 20
-6.9355851988
 10
14.5161638636
 20
-7.1157656796
 10
13.8248145087
 20
-7.4271246652
 10
13.0988612779
 20
-7.6708856447
 10
12.3407605672
 20
-7.8462238081
 10
11.5530775494
 20
-7.9525458664
 10
10.7384774945
 20
-7.9894920596
 10
9.8997167513
 20
-7.9569373734
 10
9.0396334206
 20
-7.8549919624
 10
8.1611377522
 20
-7.6840007779
 10
7.2672022972
 20
-7.4445423997
 10
6.3608518503
 20
-7.1374270792
 10
5.4451532146
 20
-6.7636939975
 10
4.5232048243
 20
-6.3246077491
 10
3.598126261
 20
-5.8216540627
 10
2.6730476977
 20
-5.2565347744
 10
1.7510993075
 20
-4.6311620692
 10
0.8354006717
 20
-3.9476520101
 10
-0.0709497751
 20
-3.2083173789
 10
-0.9648852301
 20
-2.41565985
 10
-1.8433808985
 20
-1.5723615255
 10
-2.7034642292
 20
-0.6812758601
 10
-3.5422249724
 20
0.2545819945
 10
-4.3568250273
 20
1.2320453916
 10
-5.1445080451
 20
2.2478069043
 10
-5.9026087558
 20
3.2984295172
 10
-6.6285619866
 20
4.3803582561
 10
-7.3199113415
 20
5.4899322165
 10
-7.9743175132
 20
6.6233969514
 10
-8.5895661984
 20
7.7769171749
 10
-9.1635755902
 20
8.9465897397
 10
-9.6944034226
 20
10.128456844
 10
-10.1802535421
 20
11.3185194238
 10
-10.6194819859
 20
12.512750684
 10
-11.0106025438
 20
13.707109724
 10
-11.3522917877
 20
14.8975552108
 10
-11.6433935494
 20
16.0800590538
 10
-11.8829228326
 20
17.2506200343
 10
-12.0700691462
 20
18.4052773445
 10
-12.2041992461
 20
19.5401239894
 10
-12.2848592786
 20
20.6513200074
 10
-12.3117763157
 20
21.7351054628
  0
LINE
  5
F4
330
1F
100
AcDbEntity
  8
0
  6
Continuous
 62
     7
370
    25
100
AcDbLine
 10
114.899234026
 20
28.1356862653
 30
0.0
 11
114.899234026
 21
-34.9638457143
 31
0.0
  0
LINE
  5
F5
330
1F
100
AcDbEntity
  8
0
  6
Continuous
 62
     7
370
    25
100
AcDbLine
 10
159.899234026
 20
-34.9638457143
 30
0.0
 11
159.899234026
 21
28.1356862653
 31
0.0
  0
ARC
  5
F6
330
1F
100
AcDbEntity
  8
0
  6
Continuous
 62
     7
370
    25
100
AcDbCircle
 10
117.899234026
 20
28.1356862653
 30
0.0
 40
3.000000000000002
100
AcDbArc
 50
106.9205155958
 51
180.0
  0
ARC
  5
F7
330
1F
100
AcDbEntity
  8
0
  6
Continuous
 62
     7
370
    25
100
AcDbCircle
 10
156.899234026
 20
28.1356862653
 30
0.0
 40
3.0
100
AcDbArc
 50
0.0
 51
73.0794844042
  0
ARC
  5
F8
330
1F
100
AcDbEntity
  8
0
  6
Continuous
 62
     7
370
    25
100
AcDbCircle
 10
115.899234026
 20
-34.9638457143
 30
0.0
 40
1.000000000000007
100
AcDbArc
 50
180.0
 51
270.0
  0
ARC
  5
F9
330
1F
100
AcDbEntity
  8
0
  6
Continuous
 62
     7
370
    25
100
AcDbCircle
 10
158.899234026
 20
-34.9638457143
 30
0.0
 40
1.000000000000007
100
AcDbArc
 50
270.0
 51
0.0
  0
ARC
  5
FA
330
1F
100
AcDbEntity
  8
0
  6
Continuous
 62
     7
370
    25
100
AcDbCircle
 10
137.399234026
 20
-35.9638457143
 30
0.0
 40
70.00000000000001
100
AcDbArc
 50
73.0794844042
 51
90.0
  0
ARC
  5
FB
330
1F
100
AcDbEntity
  8
0
  6
Continuous
 62
     7
370
    25
100
AcDbCircle
 10
137.399234026
 20
-35.9638457143
 30
0.0
 40
70.00000000000001
100
AcDbArc
 50
90.0
 51
106.9205155958
  0
SPLINE
  5
FC
330
1F
100
AcDbEntity
  8
0
  6
Continuous
 62
     7
370
    25
100
AcDbSpline
210
0.0
220
0.0
230
1.0
 70
    11
 71
     3
 72
    93
 73
    89
 74
     0
 42
0.00000001
 43
0.00000001
 40
0.0
 40
0.0
 40
0.0
 40
0.0
 40
0.0312500000000001
 40
0.0312500000000001
 40
0.0468750000000001
 40
0.0468750000000001
 40
0.0625000000000002
 40
0.0625000000000002
 40
0.0937500000000002
 40
0.0937500000000002
 40
0.1250000000000002
 40
0.1250000000000002
 40
0.1562500000000003
 40
0.1562500000000003
 40
0.1718750000000003
 40
0.1718750000000003
 40
0.1875000000000003
 40
0.1875000000000003
 40
0.2031250000000003
 40
0.2031250000000003
 40
0.2187500000000003
 40
0.2187500000000003
 40
0.2500000000000003
 40
0.2500000000000003
 40
0.2812500000000003
 40
0.2812500000000003
 40
0.3125000000000002
 40
0.3125000000000002
 40
0.3281250000000003
 40
0.3281250000000003
 40
0.3437500000000003
 40
0.3593750000000003
 40
0.3593750000000003
 40
0.3750000000000003
 40
0.3750000000000003
 40
0.4062500000000005
 40
0.4062500000000005
 40
0.4375000000000007
 40
0.4375000000000007
 40
0.468750000000001
 40
0.468750000000001
 40
0.484375000000001
 40
0.484375000000001
 40
0.500000000000001
 40
0.500000000000001
 40
0.5156250000000011
 40
0.5156250000000011
 40
0.5312500000000011
 40
0.5312500000000011
 40
0.562500000000001
 40
0.562500000000001
 40
0.578125000000001
 40
0.578125000000001
 40
0.5937500000000009
 40
0.5937500000000009
 40
0.6250000000000008
 40
0.6250000000000008
 40
0.6406250000000008
 40
0.6406250000000008
 40
0.6562500000000008
 40
0.6562500000000008
 40
0.6875000000000006
 40
0.6875000000000006
 40
0.7187500000000003
 40
0.7187500000000003
 40
0.7500000000000001
 40
0.7500000000000001
 40
0.7812499999999999
 40
0.7812499999999999
 40
0.7968749999999999
 40
0.7968749999999999
 40
0.8124999999999998
 40
0.8124999999999998
 40
0.8437499999999998
 40
0.8437499999999998
 40
0.8749999999999998
 40
0.8749999999999998
 40
0.8906249999999998
 40
0.8906249999999998
 40
0.9062499999999998
 40
0.9062499999999998
 40
0.9374999999999998
 40
0.9374999999999998
 40
0.9531249999999998
 40
0.9531249999999998
 40
0.9687499999999999
 40
0.9687499999999999
 40
1.0
 40
1.0
 40
1.0
 40
1.0
 10
142.5694397760183
 20
-21.13326678841487
 30
0.0
 10
142.2360774039523
 20
-20.79507773837295
 30
0.0
 10
141.8751299858446
 20
-20.49475746584681
 30
0.0
 10
141.2930743236384
 20
-20.0984604452985
 30
0.0
 10
141.0922317241818
 20
-19.97546545969313
 30
0.0
 10
140.6763914372019
 20
-19.74812327341024
 30
0.0
 10
140.4606384001248
 20
-19.64358781103102
 30
0.0
 10
139.8058701212038
 20
-19.36520891034956
 30
0.0
 10
139.3553066182551
 20
-19.22365744612191
 30
0.0
 10
138.4256085463938
 20
-19.02877706215821
 30
0.0
 10
137.9429424060138
 20
-18.97640646005773
 30
0.0
 10
136.992303287716
 20
-18.96746270454602
 30
0.0
 10
136.5193014979263
 20
-19.0091837590778
 30
0.0
 10
135.8133413656079
 20
-19.14267867556049
 30
0.0
 10
135.5796408951017
 20
-19.1990348853384
 30
0.0
 10
135.1238148077983
 20
-19.33286914605428
 30
0.0
 10
134.9004362706059
 20
-19.41056529145019
 30
0.0
 10
134.4625247801499
 20
-19.58715631797333
 30
0.0
 10
134.2479919938839
 20
-19.68605120314708
 30
0.0
 10
133.8278019587979
 20
-19.90532930496029
 30
0.0
 10
133.6214012644737
 20
-20.02631038861696
 30
0.0
 10
133.027796407119
 20
-20.41451684445078
 30
0.0
 10
132.6622484955803
 20
-20.70825935457323
 30
0.0
 10
131.9895927686633
 20
-21.3653613947389
 30
0.0
 10
131.6816922771975
 20
-21.73150542103603
 30
0.0
 10
131.1503055270965
 20
-22.50593605528961
 30
0.0
 10
130.9230227639617
 20
-22.91720338491032
 30
0.0
 10
130.6415315088181
 20
-23.57236385546346
 30
0.0
 10
130.557790687936
 20
-23.79741991053118
 30
0.0
 10
130.414436133192
 20
-24.25005166692171
 30
0.0
 10
130.2939959536875
 20
-24.70777388472781
 30
0.0
 10
130.2188709579132
 20
-25.17564574431947
 30
0.0
 10
130.1668269445807
 20
-25.64871444338705
 30
0.0
 10
130.1523469493125
 20
-25.88910023160265
 30
0.0
 10
130.1452417201759
 20
-26.60935872049
 30
0.0
 10
130.1880956089484
 20
-27.08246303701066
 30
0.0
 10
130.3657299471298
 20
-28.01510037484018
 30
0.0
 10
130.5028971079705
 20
-28.47874300739055
 30
0.0
 10
130.8595005944578
 20
-29.35535684612141
 30
0.0
 10
131.0787778254229
 20
-29.77214991887031
 30
0.0
 10
131.4696566515358
 20
-30.3656769784519
 30
0.0
 10
131.6103812043056
 20
-30.55795487657127
 30
0.0
 10
131.9068081304078
 20
-30.92404921198408
 30
0.0
 10
132.0631786326557
 20
-31.09893876454987
 30
0.0
 10
132.392089467975
 20
-31.43279499319355
 30
0.0
 10
132.5646296873337
 20
-31.59176132381476
 30
0.0
 10
132.9262448366823
 20
-31.89365506530249
 30
0.0
 10
133.1164148523694
 20
-32.03728948919152
 30
0.0
 10
133.7038548663744
 20
-32.43713014945454
 30
0.0
 10
134.1166408046449
 20
-32.662503447588
 30
0.0
 10
134.7677004162388
 20
-32.93992775606984
 30
0.0
 10
134.9900709434189
 20
-33.02222005369617
 30
0.0
 10
135.4460139675832
 20
-33.16566964723701
 30
0.0
 10
135.6783651904604
 20
-33.22629652411597
 30
0.0
 10
136.3763947021873
 20
-33.37230475720353
 30
0.0
 10
136.8476638085346
 20
-33.42367850155841
 30
0.0
 10
137.56359230883
 20
-33.43099478879201
 30
0.0
 10
137.8051719022595
 20
-33.42153913208708
 30
0.0
 10
138.2820453548464
 20
-33.37910034680522
 30
0.0
 10
138.5177329109328
 20
-33.34628453827644
 30
0.0
 10
139.2168004148297
 20
-33.21399679204318
 30
0.0
 10
139.6736325745165
 20
-33.08045956190576
 30
0.0
 10
140.559970194944
 20
-32.7230658842979
 30
0.0
 10
140.977729459178
 20
-32.50429245367055
 30
0.0
 10
141.7655054967129
 20
-31.98971610305416
 30
0.0
 10
142.1387158363227
 20
-31.69016175142374
 30
0.0
 10
142.8112987768727
 20
-31.03250613601041
 30
0.0
 10
143.1129704619817
 20
-30.67410472943859
 30
0.0
 10
143.513671027515
 20
-30.0908560225153
 30
0.0
 10
143.6391446935273
 20
-29.88756600676535
 30
0.0
 10
143.8678811239127
 20
-29.47231355807153
 30
0.0
 10
143.9714031472767
 20
-29.26025480829939
 30
0.0
 10
144.2500870883198
 20
-28.61087918835943
 30
0.0
 10
144.3937060575229
 20
-28.16049627842343
 30
0.0
 10
144.5921063814602
 20
-27.22222137242994
 30
0.0
 10
144.6437271000723
 20
-26.74696733469116
 30
0.0
 10
144.6508547436557
 20
-26.03516669981272
 30
0.0
 10
144.641544165328
 20
-25.7975336077875
 30
0.0
 10
144.5990537461886
 20
-25.32152043492522
 30
0.0
 10
144.5655674948125
 20
-25.08211247048846
 30
0.0
 10
144.4311830587432
 20
-24.37876817713519
 30
0.0
 10
144.2967058823524
 20
-23.9250586601039
 30
0.0
 10
144.0290482261252
 20
-23.26640129125152
 30
0.0
 10
143.9281378342551
 20
-23.04941772314472
 30
0.0
 10
143.7067138177239
 20
-22.6290681674761
 30
0.0
 10
143.5865264235276
 20
-22.42598541016279
 30
0.0
 10
143.1983102939477
 20
-21.83714104902141
 30
0.0
 10
142.9028021480843
 20
-21.47145583845679
 30
0.0
 10
142.5694397760183
 20
-21.13326678841487
 30
0.0
  0
CIRCLE
  5
FD
330
1F
100
AcDbEntity
  8
0
  6
Continuous
 62
     7
370
    25
100
AcDbCircle
 10
137.399234026
 20
-26.2002742339
 30
0.0
 40
7.000000000000004
  0
CIRCLE
  5
FE
330
1F
100
AcDbEntity
  8
0
  6
Continuous
 62
     7
370
    25
100
AcDbCircle
 10
137.399234026
 20
-26.2002742339
 30
0.0
 40
4.75
  0
LINE
  5
FF
330
1F
100
AcDbEntity
  8
0
  6
Continuous
 62
     7
370
    25
100
AcDbLine
 10
115.899234026
 20
-35.9638457143
 30
0.0
 11
158.899234026
 21
-35.9638457143
 31
0.0
  0
LINE
  5
100
330
1F
100
AcDbEntity
  8
0
  6
Continuous
 62
     7
370
    25
100
AcDbLine
 10
114.899234026
 20
-34.9638457143
 30
0.0
 11
159.899234026
 21
-34.9638457143
 31
0.0
  0
LINE
  5
101
330
1F
100
AcDbEntity
  8
0
  6
Continuous
 62
     7
370
    25
100
AcDbLine
 10
114.899234026
 20
28.1356862653
 30
0.0
 11
159.899234026
 21
28.1356862653
 31
0.0
  0
LINE
  5
102
330
1F
100
AcDbEntity
  8
0
  6
Continuous
 62
     7
370
    25
100
AcDbLine
 10
117.0260996976
 20
31.0058145629
 30
0.0
 11
157.7723683543
 21
31.0058145629
 31
0.0
  0
INSERT
  5
10E
330
1F
100
AcDbEntity
  8
FORMAT
 62
     7
100
AcDbBlockReference
  2
SW_CENTERMARKSYMBOL_1
 10
137.399234026
 20
-26.2002742339
 30
0.0
  0
SPLINE
  5
10F
330
1F
100
AcDbEntity
  8
0
  6
Continuous
 62
     7
370
    25
100
AcDbSpline
210
0.0
220
0.0
230
1.0
 70
     8
 71
     3
 72
    51
 73
    47
 74
     0
 42
0.00000001
 43
0.00000001
 40
0.0
 40
0.0
 40
0.0
 40
0.0
 40
0.0038282511524908
 40
0.0263689368492315
 40
0.0489040629416283
 40
0.0714719206498264
 40
0.0941135597575741
 40
0.1168613580407069
 40
0.1397361769372136
 40
0.1627463384747023
 40
0.1858884781963255
 40
0.209149935039262
 40
0.2325120155609364
 40
0.2559533559069453
 40
0.2794527432371516
 40
0.3029910581541915
 40
0.3265523082485621
 40
0.3501239278755288
 40
0.3736947200698033
 40
0.3972584177701333
 40
0.4208114344332886
 40
0.4443517962998526
 40
0.467878727067459
 40
0.4913923156671576
 40
0.5148932613131512
 40
0.5383826839717196
 40
0.5618619871867067
 40
0.5853327612560952
 40
0.6087967166522352
 40
0.6322556395785296
 40
0.6557113633240551
 40
0.6791657504954303
 40
0.7026206822563653
 40
0.7260774662389383
 40
0.7495379584413815
 40
0.7730040601791387
 40
0.7964776637507872
 40
0.8199606357615687
 40
0.8434547900032402
 40
0.8669618449729803
 40
0.8904833596747536
 40
0.9140206394970103
 40
0.937574601786141
 40
0.9611455884941648
 40
0.9847331115901148
 40
1.0
 40
1.0
 40
1.0
 40
1.0
 10
253.023057702809
 20
41.67873675109615
 30
0.0
 10
252.9876958405554
 20
41.70149450753978
 30
0.0
 10
252.7441238606894
 20
41.85824959454648
 30
0.0
 10
252.2592596671798
 20
42.09271222021681
 30
0.0
 10
251.5699018846351
 20
42.37699136505862
 30
0.0
 10
250.8487019250283
 20
42.59531075803808
 30
0.0
 10
250.1014820019356
 20
42.75394274757836
 30
0.0
 10
249.328869241618
 20
42.85054993575697
 30
0.0
 10
248.5330277277886
 20
42.88511448632696
 30
0.0
 10
247.7159758907199
 20
42.85707636182287
 30
0.0
 10
246.8800961906481
 20
42.76621630153329
 30
0.0
 10
246.0279915819648
 20
42.61252321200405
 30
0.0
 10
245.1624650451001
 20
42.39630510753251
 30
0.0
 10
244.2864342998818
 20
42.11819114111687
 30
0.0
 10
243.4028582245489
 20
41.77912195593528
 30
0.0
 10
242.5146749316946
 20
41.38031434009207
 30
0.0
 10
241.6247620838579
 20
40.92321961728756
 30
0.0
 10
240.7359408948068
 20
40.40949733827122
 30
0.0
 10
239.850944684136
 20
39.84097383346
 30
0.0
 10
238.9724176481821
 20
39.21961344691255
 30
0.0
 10
238.1029022320265
 20
38.54748149158735
 30
0.0
 10
237.244876414942
 20
37.82675063906946
 30
0.0
 10
236.4007667770444
 20
37.0597008007575
 30
0.0
 10
235.5729515834827
 20
36.24871586221268
 30
0.0
 10
234.7637613045234
 20
35.39628081763113
 30
0.0
 10
233.975477004884
 20
34.50497861685917
 30
0.0
 10
233.2103271047217
 20
33.57748634397505
 30
0.0
 10
232.4704829882408
 20
32.61657055356906
 30
0.0
 10
231.75805387075
 20
31.62508172190651
 30
0.0
 10
231.0750812613548
 20
30.60594784848896
 30
0.0
 10
230.4235332900843
 20
29.56216728673001
 30
0.0
 10
229.805299113359
 20
28.49680090914127
 30
0.0
 10
229.2221884097596
 20
27.41297272752745
 30
0.0
 10
228.6759205217201
 20
26.31385332014458
 30
0.0
 10
228.1681192932269
 20
25.20264961921893
 30
0.0
 10
227.7003056738038
 20
24.08258588265029
 30
0.0
 10
227.273898929607
 20
22.95690255532185
 30
0.0
 10
226.8902150111485
 20
21.82884809098968
 30
0.0
 10
226.5504626077269
 20
20.70166902676369
 30
0.0
 10
226.255750013133
 20
19.57860602565298
 30
0.0
 10
226.0070550147693
 20
18.46287094007851
 30
0.0
 10
225.8053359779246
 20
17.35769963161084
 30
0.0
 10
225.6511177634359
 20
16.26612848903391
 30
0.0
 10
225.5460405299241
 20
15.19181202376323
 30
0.0
 10
225.4940199475614
 20
14.26033947791022
 30
0.0
 10
225.4887763750798
 20
13.6938257798623
 30
0.0
 10
225.4867160418295
 20
13.47122811139755
 30
0.0
  0
SPLINE
  5
110
330
1F
100
AcDbEntity
  8
0
  6
Continuous
 62
     7
370
    25
100
AcDbSpline
210
0.0
220
0.0
230
1.0
 70
     8
 71
     3
 72
    22
 73
    18
 74
     0
 42
0.00000001
 43
0.00000001
 40
0.0
 40
0.0
 40
0.0
 40
0.0
 40
0.0376788481696708
 40
0.1089990641401917
 40
0.1803492253127795
 40
0.2516781486166707
 40
0.3229462201333712
 40
0.3941024762490668
 40
0.465085282993257
 40
0.5358254278601522
 40
0.6062523009726978
 40
0.6763031821658376
 40
0.7459345194607382
 40
0.8151328987789458
 40
0.8839228218447283
 40
0.952368900426719
 40
1.0
 40
1.0
 40
1.0
 40
1.0
 10
225.4867160418295
 20
13.47122811139755
 30
0.0
 10
225.4881100420847
 20
13.29095135304402
 30
0.0
 10
225.4921426686275
 20
12.76943865025975
 30
0.0
 10
225.5369481254253
 20
11.92700717160569
 30
0.0
 10
225.6375674726615
 20
10.95606070577022
 30
0.0
 10
225.7888868850891
 20
10.01830831849789
 30
0.0
 10
225.9898737073814
 20
9.116541597162886
 30
0.0
 10
226.2403651251551
 20
8.253990225538018
 30
0.0
 10
226.5396389663337
 20
7.433718408192591
 30
0.0
 10
226.8867390243427
 20
6.658752893465428
 30
0.0
 10
227.2803668632088
 20
5.931986504782078
 30
0.0
 10
227.7188610430123
 20
5.256015720563058
 30
0.0
 10
228.200426726548
 20
4.633375487844564
 30
0.0
 10
228.722504221665
 20
4.065272922030509
 30
0.0
 10
229.2845196647319
 20
3.556016443113961
 30
0.0
 10
229.8187590124364
 20
3.142578966537053
 30
0.0
 10
230.1802726690984
 20
2.924889104620743
 30
0.0
 10
230.3286161527291
 20
2.835562264893815
 30
0.0
  0
LINE
  5
111
330
1F
100
AcDbEntity
  8
0
  6
Continuous
 62
     7
370
    25
100
AcDbLine
 10
297.5567045319
 20
15.9762298369
 30
0.0
 11
252.9385975795
 21
41.7337147171
 31
0.0
  0
LINE
  5
112
330
1F
100
AcDbEntity
  8
0
  6
Continuous
 62
     7
370
    25
100
AcDbLine
 10
230.4404260952
 20
2.7615159099
 30
0.0
 11
240.7314238588
 21
-3.1793506441
 31
0.0
  0
LINE
  5
113
330
1F
100
AcDbEntity
  8
0
  6
Continuous
 62
     7
370
    25
100
AcDbLine
 10
254.7260450688
 20
-11.2582735039
 30
0.0
 11
275.0585330476
 21
-22.9959689702
 31
0.0
  0
LINE
  5
114
330
1F
100
AcDbEntity
  8
0
  6
Continuous
 62
     7
370
    25
100
AcDbLine
 10
240.6476285718
 20
0.7402601833
 30
0.0
 11
240.8868256943
 21
-10.4484315046
 31
0.0
  0
LINE
  5
115
330
1F
100
AcDbEntity
  8
0
  6
Continuous
 62
     7
370
    25
100
AcDbLine
 10
254.8857596228
 20
-10.4484315046
 30
0.0
 11
255.1244490395
 21
0.7165117203
 31
0.0
  0
LINE
  5
116
330
1F
100
AcDbEntity
  8
0
  6
Continuous
 62
     7
370
    25
100
AcDbLine
 10
255.0411614583
 20
40.5199304259
 30
0.0
 11
254.8857596228
 21
47.7890112865
 31
0.0
  0
LINE
  5
117
330
1F
100
AcDbEntity
  8
0
  6
Continuous
 62
     7
370
    25
100
AcDbLine
 10
240.8868256943
 20
47.7890112865
 30
0.0
 11
240.7287603232
 21
40.3953408057
 31
0.0
  0
SPLINE
  5
118
330
1F
100
AcDbEntity
  8
0
  6
Continuous
 62
     7
370
    25
100
AcDbSpline
210
0.0
220
0.0
230
1.0
 70
     8
 71
     3
 72
    64
 73
    60
 74
     0
 42
0.00000001
 43
0.00000001
 40
0.0
 40
0.0
 40
0.0
 40
0.0
 40
0.0149240428295506
 40
0.0311430242320585
 40
0.047387396635582
 40
0.0637102095460709
 40
0.0801599082244763
 40
0.0967777625409175
 40
0.1135952765974209
 40
0.1306318486234605
 40
0.1478931589274199
 40
0.165370855961841
 40
0.1830439598033995
 40
0.2008819725706305
 40
0.2188491282684311
 40
0.2369088279279513
 40
0.2550273195832294
 40
0.2731760650073382
 40
0.2913295843062301
 40
0.309470749337153
 40
0.3275903574892716
 40
0.3456832522578915
 40
0.3637473458869421
 40
0.3817827861804693
 40
0.3997912980523859
 40
0.4177756888222415
 40
0.4357394906733524
 40
0.4536867105933629
 40
0.4716216607708399
 40
0.489548846979946
 40
0.5074728970377677
 40
0.5253985151525935
 40
0.5433290056265102
 40
0.5612690093103034
 40
0.5792232971830693
 40
0.5971965956896921
 40
0.6151935220430745
 40
0.6332184821032606
 40
0.6512755128316479
 40
0.6693680462769855
 40
0.6874985663095837
 40
0.7056681242812916
 40
0.7238756785161258
 40
0.7421172309469997
 40
0.7603847622466916
 40
0.7786632110000153
 40
0.7969266688141754
 40
0.8151459402799658
 40
0.83328504923521
 40
0.851303251004318
 40
0.869158808633937
 40
0.8868141202700293
 40
0.9042411178459049
 40
0.9214255566227805
 40
0.9383691616184857
 40
0.9550894011260328
 40
0.9716174153930677
 40
0.9879949623142306
 40
1.0
 40
1.0
 40
1.0
 40
1.0
 10
275.0623434675589
 20
-22.99527005000535
 30
0.0
 10
275.2771778723355
 20
-23.11403436210994
 30
0.0
 10
275.725487566314
 20
-23.36186800156138
 30
0.0
 10
276.4457149505927
 20
-23.66480204972417
 30
0.0
 10
277.2098070268954
 20
-23.9200408958152
 30
0.0
 10
277.9996273489948
 20
-24.1123532464982
 30
0.0
 10
278.812634053908
 20
-24.24307793292305
 30
0.0
 10
279.6476107145326
 20
-24.31119729726571
 30
0.0
 10
280.5029225725364
 20
-24.31618396446142
 30
0.0
 10
281.3768074730186
 20
-24.25731836984001
 30
0.0
 10
282.2671301672671
 20
-24.13401950383
 30
0.0
 10
283.1713369147108
 20
-23.94593745600845
 30
0.0
 10
284.0864439475627
 20
-23.69311187473729
 30
0.0
 10
285.0091180086985
 20
-23.37607002978226
 30
0.0
 10
285.9358155611543
 20
-22.99586466309125
 30
0.0
 10
286.8629465915123
 20
-22.55404076661019
 30
0.0
 10
287.7870208502844
 20
-22.05255049495536
 30
0.0
 10
288.7046955007098
 20
-21.49367712216157
 30
0.0
 10
289.6128621860942
 20
-20.87992364332062
 30
0.0
 10
290.508693063196
 20
-20.21390337746294
 30
0.0
 10
291.3896573206146
 20
-19.49823457725393
 30
0.0
 10
292.2534353711265
 20
-18.73552779987179
 30
0.0
 10
293.0978321262791
 20
-17.92841154683467
 30
0.0
 10
293.9207455030836
 20
-17.07953433985172
 30
0.0
 10
294.7201437259059
 20
-16.19157047523869
 30
0.0
 10
295.4940507009082
 20
-15.26722624952236
 30
0.0
 10
296.2405379034845
 20
-14.30924488602878
 30
0.0
 10
296.9577210774568
 20
-13.32040935017871
 30
0.0
 10
297.6437602108288
 20
-12.30354283200885
 30
0.0
 10
298.2968615224195
 20
-11.2615070081361
 30
0.0
 10
298.9152804591647
 20
-10.19719838312793
 30
0.0
 10
299.4973093114929
 20
-9.113572185941894
 30
0.0
 10
300.0412990691023
 20
-8.01361153757604
 30
0.0
 10
300.5456640685914
 20
-6.900316445671573
 30
0.0
 10
301.0088942524779
 20
-5.776664956458473
 30
0.0
 10
301.4295400470352
 20
-4.645632544958058
 30
0.0
 10
301.8062090974192
 20
-3.510189201492216
 30
0.0
 10
302.1375628363214
 20
-2.373295847217951
 30
0.0
 10
302.4223117128566
 20
-1.237903947835671
 30
0.0
 10
302.6592095800041
 20
-0.1069597193988549
 30
0.0
 10
302.8470482313434
 20
1.016585432399403
 30
0.0
 10
302.9846538104254
 20
2.129756464766964
 30
0.0
 10
303.0708878363629
 20
3.229526647307156
 30
0.0
 10
303.1046568714135
 20
4.312779145456751
 30
0.0
 10
303.0849368438074
 20
5.376224181415163
 30
0.0
 10
303.0108328300412
 20
6.416267054520495
 30
0.0
 10
302.8816743208205
 20
7.429052520541574
 30
0.0
 10
302.6971161820271
 20
8.410492197577467
 30
0.0
 10
302.4572269575934
 20
9.356382395723603
 30
0.0
 10
302.1625976545712
 20
10.26244159354476
 30
0.0
 10
301.8144059594048
 20
11.12448236848249
 30
0.0
 10
301.4144203168676
 20
11.93862406096892
 30
0.0
 10
300.9649109857519
 20
12.70145907118029
 30
0.0
 10
300.4685637735728
 20
13.41026343787247
 30
0.0
 10
299.9281300486335
 20
14.06271266499186
 30
0.0
 10
299.3469452690987
 20
14.65797942830478
 30
0.0
 10
298.7263306817168
 20
15.19239288330503
 30
0.0
 10
298.1311956569556
 20
15.63293062155877
 30
0.0
 10
297.7281619896531
 20
15.86845794991486
 30
0.0
 10
297.5576900459733
 20
15.96807940765388
 30
0.0
  0
LWPOLYLINE
  5
119
330
1F
100
AcDbEntity
  8
0
  6
Continuous
 62
     7
370
    25
100
AcDbPolyline
 90
      107
 70
   128
 43
0.0
 10
225.7796092606
 20
13.8794321673
 10
225.806309448
 20
14.9348522509
 10
225.8863162247
 20
16.0173925131
 10
226.0193485639
 20
17.1232504918
 10
226.2049391848
 20
18.2485418204
 10
226.4424361936
 20
19.3893138721
 10
226.7310053732
 20
20.5415596435
 10
227.0696331141
 20
21.7012318294
 10
227.4571299737
 20
22.8642570387
 10
227.8921348554
 20
24.0265501032
 10
228.3731197886
 20
25.184028426
 10
228.8983952962
 20
26.3326263222
 10
229.4661163288
 20
27.4683092999
 10
230.0742887455
 20
28.5870882313
 10
230.7207763186
 20
29.6850333644
 10
231.4033082369
 20
30.758288127
 10
232.1194870822
 20
31.8030826726
 10
232.8667972501
 20
32.8157471222
 10
233.6426137864
 20
33.7927244551
 10
234.4442116072
 20
34.7305830026
 10
235.268775071
 20
35.6260285025
 10
236.1134078684
 20
36.4759156698
 10
236.9751431961
 20
37.2772592448
 10
237.8509541772
 20
38.027244479
 10
238.7377644937
 20
38.7232370218
 10
239.6324591921
 20
39.3627921742
 10
240.5318956245
 20
39.9436634752
 10
241.4329144878
 20
40.4638105934
 10
242.3323509202
 20
40.9214064928
 10
243.2270456186
 20
41.3148438513
 10
244.1138559351
 20
41.6427407058
 10
244.9896669162
 20
41.9039453067
 10
245.8514022439
 20
42.0975401631
 10
246.6960350414
 20
42.2228452663
 10
247.5205985051
 20
42.2794204773
 10
248.3221963259
 20
42.2670670737
 10
249.0980128622
 20
42.1858284473
 10
249.8453230301
 20
42.0359899518
 10
250.5615018754
 20
41.8180779002
 10
251.2440337937
 20
41.5328577167
 10
251.8905213668
 20
41.1813312475
 10
252.4986937835
 20
40.7647332422
 10
253.0664148161
 20
40.2845270165
 10
253.5916903237
 20
39.7423993122
 10
254.0726752569
 20
39.1402543727
 10
254.5076801386
 20
38.4802072541
 10
254.8951769983
 20
37.7645763958
 10
255.2338047391
 20
36.9958754775
 10
255.5223739187
 20
36.176804589
 10
255.7598709275
 20
35.3102407469
 10
255.9454615484
 20
34.3992277882
 10
256.0784938876
 20
33.4469656791
 10
256.1585006643
 20
32.456799275
 10
256.1852008517
 20
31.4322065715
 10
256.1585006643
 20
30.3767864879
 10
256.0784938876
 20
29.2942462257
 10
255.9454615484
 20
28.1883882471
 10
255.7598709275
 20
27.0630969184
 10
255.5223739187
 20
25.9223248667
 10
255.2338047391
 20
24.7700790953
 10
254.8951769983
 20
23.6104069094
 10
254.5076801386
 20
22.4473817001
 10
254.0726752569
 20
21.2850886356
 10
253.5916903237
 20
20.1276103128
 10
253.0664148161
 20
18.9790124166
 10
252.4986937835
 20
17.8433294389
 10
251.8905213668
 20
16.7245505075
 10
251.2440337937
 20
15.6266053744
 10
250.5615018754
 20
14.5533506118
 10
249.8453230301
 20
13.5085560662
 10
249.0980128622
 20
12.4958916166
 10
248.3221963259
 20
11.5189142837
 10
247.5205985051
 20
10.5810557362
 10
246.6960350414
 20
9.6856102363
 10
245.8514022439
 20
8.835723069
 10
244.9896669162
 20
8.034379494
 10
244.1138559351
 20
7.2843942598
 10
243.2270456186
 20
6.588401717
 10
242.3323509202
 20
5.9488465646
 10
241.4329144878
 20
5.3679752636
 10
240.5318956245
 20
4.8478281454
 10
239.6324591921
 20
4.390232246
 10
238.7377644937
 20
3.9967948875
 10
237.8509541772
 20
3.668898033
 10
236.9751431961
 20
3.4076934321
 10
236.1134078684
 20
3.2140985757
 10
235.268775071
 20
3.0887934725
 10
234.4442116072
 20
3.0322182615
 10
233.6426137864
 20
3.0445716651
 10
232.8667972501
 20
3.1258102915
 10
232.1194870822
 20
3.275648787
 10
231.4033082369
 20
3.4935608386
 10
230.7207763186
 20
3.7787810221
 10
230.0742887455
 20
4.1303074913
 10
229.4661163288
 20
4.5469054966
 10
228.8983952962
 20
5.0271117223
 10
228.3731197886
 20
5.5692394266
 10
227.8921348554
 20
6.1713843661
 10
227.4571299737
 20
6.8314314848
 10
227.0696331141
 20
7.547062343
 10
226.7310053732
 20
8.3157632613
 10
226.4424361936
 20
9.1348341498
 10
226.2049391848
 20
10.0013979919
 10
226.0193485639
 20
10.9124109506
 10
225.8863162247
 20
11.8646730597
 10
225.806309448
 20
12.8548394638
 10
225.7796092606
 20
13.8794321673
  0
LINE
  5
11A
330
1F
100
AcDbEntity
  8
0
  6
Continuous
 62
     7
370
    25
100
AcDbLine
 10
252.9385975795
 20
41.7337147171
 30
0.0
 11
253.0183881934
 21
41.6869945553
 31
0.0
  0
LINE
  5
11B
330
1F
100
AcDbEntity
  8
0
  6
Continuous
 62
     7
370
    25
100
AcDbLine
 10
230.4404260952
 20
2.7615159099
 30
0.0
 11
230.3343831844
 21
2.823898189
 31
0.0
  0
SPLINE
  5
11C
330
1F
100
AcDbEntity
  8
0
  6
Continuous
 62
     7
370
    25
100
AcDbSpline
210
0.0
220
0.0
230
1.0
 70
     8
 71
     3
 72
    28
 73
    24
 74
     0
 42
0.00000001
 43
0.00000001
 40
0.0
 40
0.0
 40
0.0
 40
0.0
 40
0.0071174216707955
 40
0.0602457380443841
 40
0.1133655406928922
 40
0.166591458168514
 40
0.2198036343576557
 40
0.2710171277499417
 40
0.3222339737064244
 40
0.3722490213024485
 40
0.4222756408024742
 40
0.4742290411302035
 40
0.5261861574792218
 40
0.5803523203588691
 40
0.6345076031516035
 40
0.6879514843692895
 40
0.7413867212737134
 40
0.7925609695674847
 40
0.8437408499503254
 40
0.8946076602096388
 40
0.9454841179021201
 40
0.9983205310490659
 40
0.9999999999999999
 40
0.9999999999999999
 40
0.9999999999999999
 40
0.9999999999999999
 10
255.1129823624757
 20
0.7171530031486045
 30
0.0
 10
255.1174945014181
 20
0.7553759951734635
 30
0.0
 10
255.155687705827
 20
1.078916242093358
 30
0.0
 10
255.0356706539827
 20
1.694085857178139
 30
0.0
 10
254.7420985981709
 20
2.520456125855826
 30
0.0
 10
254.2293335830698
 20
3.275209907439727
 30
0.0
 10
253.5499360457207
 20
3.920441203894639
 30
0.0
 10
252.7169315930192
 20
4.426922434092424
 30
0.0
 10
251.7773908961144
 20
4.789678198200932
 30
0.0
 10
250.7467387686713
 20
5.005814881100909
 30
0.0
 10
249.6450679346231
 20
5.091022679886636
 30
0.0
 10
248.4870378419296
 20
5.0454586780947
 30
0.0
 10
247.284013177644
 20
4.880757286711988
 30
0.0
 10
246.0791380074932
 20
4.605303815764894
 30
0.0
 10
244.9100231005122
 20
4.238212730263199
 30
0.0
 10
243.8291512220276
 20
3.802433839136265
 30
0.0
 10
242.8779099547784
 20
3.325903860158356
 30
0.0
 10
242.0808199457326
 20
2.825860748314772
 30
0.0
 10
241.4499322995678
 20
2.317351399022173
 30
0.0
 10
240.9879917340407
 20
1.803621900775178
 30
0.0
 10
240.721273340589
 20
1.282959196721518
 30
0.0
 10
240.6133345750845
 20
0.9287303218326483
 30
0.0
 10
240.6501262720953
 20
0.746125913709865
 30
0.0
 10
240.6512597126709
 20
0.7405004258346902
 30
0.0
  0
LWPOLYLINE
  5
11D
330
1F
100
AcDbEntity
  8
0
  6
Continuous
 62
     7
370
    25
100
AcDbPolyline
 90
       93
 70
   128
 43
0.0
 10
229.56263054
 20
16.0633238664
 10
229.5892526702
 20
16.9786143522
 10
229.6689949361
 20
17.9203745885
 10
229.8014855425
 20
18.8842136543
 10
229.9861067569
 20
19.8656376871
 10
230.2219977902
 20
20.8600708348
 10
230.5080588093
 20
21.8628765911
 10
230.8429560658
 20
22.8693794127
 10
231.225128114
 20
23.8748865188
 10
231.6527930915
 20
24.8747097711
 10
232.1239570267
 20
25.8641875321
 10
232.6364231358
 20
26.8387063997
 10
233.1878020653
 20
27.793722717
 10
233.7755230321
 20
28.7247837571
 10
234.3968458097
 20
29.6275484838
 10
235.0488735045
 20
30.497807791
 10
235.7285660625
 20
31.3315041282
 10
236.4327544431
 20
32.1247504182
 10
237.1581553951
 20
32.8738481806
 10
237.9013867644
 20
33.5753047758
 10
238.6589832631
 20
34.2258496894
 10
239.4274126269
 20
34.8224497808
 10
240.2030920831
 20
35.3623234248
 10
240.9824050562
 20
35.8429534814
 10
241.7617180292
 20
36.2620990312
 10
242.5373974855
 20
36.6178058244
 10
243.3058268492
 20
36.9084153917
 10
244.063423348
 20
37.1325727769
 10
244.8066547172
 20
37.2892328551
 10
245.5320556692
 20
37.3776652045
 10
246.2362440498
 20
37.3974575128
 10
246.9159366078
 20
37.348517499
 10
247.5679643026
 20
37.2310733442
 10
248.1892870802
 20
37.045672627
 10
248.777008047
 20
36.7931797714
 10
249.3283869765
 20
36.4747720155
 10
249.8408530856
 20
36.0919339232
 10
250.3120170208
 20
35.6464504626
 10
250.7396819983
 20
35.1403986831
 10
251.1218540465
 20
34.5761380317
 10
251.456751303
 20
33.956299352
 10
251.7428123221
 20
33.2837726182
 10
251.9787033554
 20
32.5616934602
 10
252.1633245698
 20
31.7934285445
 10
252.2958151762
 20
30.9825598767
 10
252.3755574421
 20
30.1328681009
 10
252.4021795723
 20
29.2483148724
 10
252.3755574421
 20
28.3330243866
 10
252.2958151762
 20
27.3912641503
 10
252.1633245698
 20
26.4274250845
 10
251.9787033554
 20
25.4460010518
 10
251.7428123221
 20
24.451567904
 10
251.456751303
 20
23.4487621477
 10
251.1218540465
 20
22.4422593261
 10
250.7396819983
 20
21.43675222
 10
250.3120170208
 20
20.4369289677
 10
249.8408530856
 20
19.4474512067
 10
249.3283869765
 20
18.4729323392
 10
248.777008047
 20
17.5179160218
 10
248.1892870802
 20
16.5868549817
 10
247.5679643026
 20
15.684090255
 10
246.9159366078
 20
14.8138309478
 10
246.2362440498
 20
13.9801346106
 10
245.5320556692
 20
13.1868883206
 10
244.8066547172
 20
12.4377905582
 10
244.063423348
 20
11.736333963
 10
243.3058268492
 20
11.0857890494
 10
242.5373974855
 20
10.489188958
 10
241.7617180292
 20
9.949315314
 10
240.9824050562
 20
9.4686852574
 10
240.2030920831
 20
9.0495397076
 10
239.4274126269
 20
8.6938329144
 10
238.6589832631
 20
8.4032233472
 10
237.9013867644
 20
8.1790659619
 10
237.1581553951
 20
8.0224058837
 10
236.4327544431
 20
7.9339735343
 10
235.7285660625
 20
7.914181226
 10
235.0488735045
 20
7.9631212398
 10
234.3968458097
 20
8.0805653947
 10
233.7755230321
 20
8.2659661118
 10
233.1878020653
 20
8.5184589674
 10
232.6364231358
 20
8.8368667233
 10
232.1239570267
 20
9.2197048156
 10
231.6527930915
 20
9.6651882762
 10
231.225128114
 20
10.1712400557
 10
230.8429560658
 20
10.7355007072
 10
230.5080588093
 20
11.3553393868
 10
230.2219977902
 20
12.0278661207
 10
229.9861067569
 20
12.7499452786
 10
229.8014855425
 20
13.5182101943
 10
229.6689949361
 20
14.3290788621
 10
229.5892526702
 20
15.1787706379
 10
229.56263054
 20
16.0633238664
  0
LWPOLYLINE
  5
11E
330
1F
100
AcDbEntity
  8
0
  6
Continuous
 62
     7
370
    25
100
AcDbPolyline
 90
       61
 70
   128
 43
0.0
 10
252.8360401269
 20
-13.2559914036
 10
252.2915353959
 20
-13.5390207105
 10
251.6987659037
 20
-13.7876425058
 10
251.0642261567
 20
-13.9991328368
 10
250.3948683054
 20
-14.1711745714
 10
249.6980259743
 20
-14.3018827843
 10
248.9813339138
 20
-14.389825409
 10
248.2526443523
 20
-14.4340389276
 10
247.5199409649
 20
-14.4340389276
 10
246.7912514033
 20
-14.389825409
 10
246.0745593428
 20
-14.3018827843
 10
245.3777170117
 20
-14.1711745714
 10
244.7083591604
 20
-13.9991328368
 10
244.0738194135
 20
-13.7876425058
 10
243.4810499212
 20
-13.5390207105
 10
242.9365451902
 20
-13.2559914036
 10
242.4462709284
 20
-12.9416555132
 10
242.0155986829
 20
-12.5994569693
 10
241.6492469892
 20
-12.2331449705
 10
241.3512296731
 20
-11.846732908
 10
241.1248118745
 20
-11.444454393
 10
240.9724742744
 20
-11.0307168731
 10
240.8958859153
 20
-10.6100533433
 10
240.8958859153
 20
-10.1870726811
 10
240.9724742744
 20
-9.7664091513
 10
241.1248118745
 20
-9.3526716315
 10
241.3512296731
 20
-8.9503931165
 10
241.6492469892
 20
-8.5639810539
 10
242.0155986829
 20
-8.1976690552
 10
242.4462709284
 20
-7.8554705112
 10
242.9365451902
 20
-7.5411346208
 10
243.4810499212
 20
-7.2581053139
 10
244.0738194135
 20
-7.0094835187
 10
244.7083591604
 20
-6.7979931876
 10
245.3777170117
 20
-6.625951453
 10
246.0745593428
 20
-6.4952432401
 10
246.7912514033
 20
-6.4073006154
 10
247.5199409649
 20
-6.3630870968
 10
248.2526443523
 20
-6.3630870968
 10
248.9813339138
 20
-6.4073006154
 10
249.6980259743
 20
-6.4952432401
 10
250.3948683054
 20
-6.625951453
 10
251.0642261567
 20
-6.7979931876
 10
251.6987659037
 20
-7.0094835187
 10
252.2915353959
 20
-7.2581053139
 10
252.8360401269
 20
-7.5411346208
 10
253.3263143888
 20
-7.8554705112
 10
253.7569866342
 20
-8.1976690552
 10
254.1233383279
 20
-8.5639810539
 10
254.421355644
 20
-8.9503931165
 10
254.6477734426
 20
-9.3526716315
 10
254.8001110427
 20
-9.7664091513
 10
254.8766994018
 20
-10.1870726811
 10
254.8766994018
 20
-10.6100533433
 10
254.8001110427
 20
-11.0307168731
 10
254.6477734426
 20
-11.444454393
 10
254.421355644
 20
-11.846732908
 10
254.1233383279
 20
-12.2331449705
 10
253.7569866342
 20
-12.5994569693
 10
253.3263143888
 20
-12.9416555132
 10
252.8360401269
 20
-13.2559914036
  0
LWPOLYLINE
  5
11F
330
1F
100
AcDbEntity
  8
0
  6
Continuous
 62
     7
370
    25
100
AcDbPolyline
 90
       51
 70
   128
 43
0.0
 10
251.2450498692
 20
-12.3375322778
 10
250.7976011634
 20
-12.5652602138
 10
250.3042393834
 20
-12.7588180407
 10
249.7727451391
 20
-12.9151532358
 10
249.2115004122
 20
-13.0318002997
 10
248.6293563675
 20
-13.1069196386
 10
248.0354937642
 20
-13.1393265756
 10
247.4392781703
 20
-13.1285100339
 10
246.8501122619
 20
-13.074640597
 10
246.2772875374
 20
-12.9785678179
 10
245.7298377848
 20
-12.8418068218
 10
245.2163966138
 20
-12.6665144113
 10
244.7450612983
 20
-12.4554550524
 10
244.3232650778
 20
-12.2119572773
 10
243.9576599308
 20
-11.9398611914
 10
243.6540116687
 20
-11.6434579125
 10
243.417109006
 20
-11.3274218973
 10
243.2506880393
 20
-10.9967372227
 10
243.1573733267
 20
-10.6566189834
 10
243.1386364968
 20
-10.3124310473
 10
243.1947730407
 20
-9.9696014637
 10
243.3248976516
 20
-9.6335368601
 10
243.5269581866
 20
-9.3095371758
 10
243.7977680303
 20
-9.0027120795
 10
244.1330563498
 20
-8.7179003863
 10
244.5275354479
 20
-8.4595937466
 10
244.9749841537
 20
-8.2318658106
 10
245.4683459337
 20
-8.0383079838
 10
245.999840178
 20
-7.8819727887
 10
246.5610849049
 20
-7.7653257247
 10
247.1432289496
 20
-7.6902063858
 10
247.7370915529
 20
-7.6577994488
 10
248.3333071468
 20
-7.6686159905
 10
248.9224730552
 20
-7.7224854275
 10
249.4952977797
 20
-7.8185582066
 10
250.0427475323
 20
-7.9553192027
 10
250.5561887034
 20
-8.1306116132
 10
251.0275240188
 20
-8.341670972
 10
251.4493202393
 20
-8.5851687471
 10
251.8149253864
 20
-8.857264833
 10
252.1185736485
 20
-9.1536681119
 10
252.3554763111
 20
-9.4697041271
 10
252.5218972778
 20
-9.8003888017
 10
252.6152119904
 20
-10.140507041
 10
252.6339488203
 20
-10.4846949771
 10
252.5778122764
 20
-10.8275245607
 10
252.4476876655
 20
-11.1635891644
 10
252.2456271306
 20
-11.4875888487
 10
251.9748172868
 20
-11.7944139449
 10
251.6395289673
 20
-12.0792256382
 10
251.2450498692
 20
-12.3375322778
  0
LWPOLYLINE
  5
120
330
1F
100
AcDbEntity
  8
0
  6
Continuous
 62
     7
370
    25
100
AcDbPolyline
 90
       32
 70
   128
 43
0.0
 10
240.8868256943
 20
47.7890112865
 10
240.8958859153
 20
47.9506331251
 10
240.9724742744
 20
48.371296655
 10
241.1248118745
 20
48.7850341748
 10
241.3512296731
 20
49.1873126898
 10
241.6492469892
 20
49.5737247524
 10
242.0155986829
 20
49.9400367511
 10
242.4462709284
 20
50.2822352951
 10
242.9365451902
 20
50.5965711854
 10
243.4810499212
 20
50.8796004924
 10
244.0738194135
 20
51.1282222876
 10
244.7083591604
 20
51.3397126187
 10
245.3777170117
 20
51.5117543533
 10
246.0745593428
 20
51.6424625662
 10
246.7912514033
 20
51.7304051908
 10
247.5199409649
 20
51.7746187094
 10
248.2526443523
 20
51.7746187094
 10
248.9813339138
 20
51.7304051908
 10
249.6980259743
 20
51.6424625662
 10
250.3948683054
 20
51.5117543533
 10
251.0642261567
 20
51.3397126187
 10
251.6987659037
 20
51.1282222876
 10
252.2915353959
 20
50.8796004924
 10
252.8360401269
 20
50.5965711854
 10
253.3263143888
 20
50.2822352951
 10
253.7569866342
 20
49.9400367511
 10
254.1233383279
 20
49.5737247524
 10
254.421355644
 20
49.1873126898
 10
254.6477734426
 20
48.7850341748
 10
254.8001110427
 20
48.371296655
 10
254.8766994018
 20
47.9506331251
 10
254.8857596228
 20
47.7890112865
  0
LWPOLYLINE
  5
121
330
1F
100
AcDbEntity
  8
0
  6
Continuous
 62
     7
370
    25
100
AcDbPolyline
 90
       56
 70
   128
 43
0.0
 10
253.0183881934
 20
41.6869945553
 10
253.2619556116
 20
41.5359917462
 10
253.8772042968
 20
41.0928225344
 10
254.4512136886
 20
40.5858871066
 10
254.9820415209
 20
40.0169007719
 10
255.4678916405
 20
39.3877888
 10
255.9071200842
 20
38.7006799066
 10
256.2982406422
 20
37.9578990507
 10
256.6399298861
 20
37.1619595676
 10
256.9310316478
 20
36.3155546646
 10
257.170560931
 20
35.4215483079
 10
257.3577072445
 20
34.4829655321
 10
257.4918373445
 20
33.5029822041
 10
257.572497377
 20
32.4849142774
 10
257.599414414
 20
31.4322065715
 10
257.572497377
 20
30.3484211161
 10
257.4918373445
 20
29.2372250982
 10
257.3577072445
 20
28.1023784532
 10
257.170560931
 20
26.947721143
 10
256.9310316478
 20
25.7771601626
 10
256.6399298861
 20
24.5946563195
 10
256.2982406422
 20
23.4042108327
 10
255.9071200842
 20
22.2098517927
 10
255.4678916405
 20
21.0156205326
 10
254.9820415209
 20
19.8255579528
 10
254.4512136886
 20
18.6436908484
 10
253.8772042968
 20
17.4740182836
 10
253.2619556116
 20
16.3204980601
 10
252.6075494399
 20
15.1870333253
 10
251.916200085
 20
14.0774593649
 10
251.1902468542
 20
12.995530626
 10
250.4321461435
 20
11.944908013
 10
249.6444631257
 20
10.9291465003
 10
248.8298630708
 20
9.9516831033
 10
247.9911023276
 20
9.0158252487
 10
247.1310189969
 20
8.1247395832
 10
246.2525233285
 20
7.2814412587
 10
245.3585878735
 20
6.4887837298
 10
244.4522374266
 20
5.7494490987
 10
243.5365387909
 20
5.0659390396
 10
242.6145904006
 20
4.4405663343
 10
241.6895118373
 20
3.8754470461
 10
240.764433274
 20
3.3724933597
 10
239.8424848838
 20
2.9334071112
 10
238.926786248
 20
2.5596740295
 10
238.0204358012
 20
2.2525587091
 10
237.1265003462
 20
2.0131003309
 10
236.2480046778
 20
1.8421091463
 10
235.3879213471
 20
1.7401637354
 10
234.5491606038
 20
1.7076090491
 10
233.734560549
 20
1.7445552423
 10
232.9468775312
 20
1.8508773006
 10
232.1887768205
 20
2.026215464
 10
231.4628235897
 20
2.2699764435
 10
230.7714742348
 20
2.5813354292
 10
230.4404260952
 20
2.7615159099
  0
LWPOLYLINE
  5
122
330
1F
100
AcDbEntity
  8
0
  6
Continuous
 62
     7
370
    25
100
AcDbPolyline
 90
       56
 70
   128
 43
0.0
 10
297.5567045319
 20
15.9762298369
 10
297.8800625641
 20
15.7785068661
 10
298.4953112492
 20
15.3353376542
 10
299.069320641
 20
14.8284022264
 10
299.6001484734
 20
14.2594158918
 10
300.0859985929
 20
13.6303039198
 10
300.5252270367
 20
12.9431950264
 10
300.9163475946
 20
12.2004141705
 10
301.2580368385
 20
11.4044746874
 10
301.5491386002
 20
10.5580697844
 10
301.7886678835
 20
9.6640634277
 10
301.975814197
 20
8.7254806519
 10
302.1099442969
 20
7.7454973239
 10
302.1906043294
 20
6.7274293972
 10
302.2175213665
 20
5.6747216913
 10
302.1906043294
 20
4.590936236
 10
302.1099442969
 20
3.479740218
 10
301.975814197
 20
2.344893573
 10
301.7886678835
 20
1.1902362629
 10
301.5491386002
 20
0.0196752824
 10
301.2580368385
 20
-1.1628285606
 10
300.9163475946
 20
-2.3532740475
 10
300.5252270367
 20
-3.5476330874
 10
300.0859985929
 20
-4.7418643476
 10
299.6001484734
 20
-5.9319269274
 10
299.069320641
 20
-7.1137940318
 10
298.4953112492
 20
-8.2834665965
 10
297.8800625641
 20
-9.43698682
 10
297.2256563924
 20
-10.5704515549
 10
296.5343070374
 20
-11.6800255153
 10
295.8083538066
 20
-12.7619542542
 10
295.0502530959
 20
-13.8125768672
 10
294.2625700781
 20
-14.8283383799
 10
293.4479700233
 20
-15.8058017769
 10
292.6092092801
 20
-16.7416596315
 10
291.7491259494
 20
-17.632745297
 10
290.8706302809
 20
-18.4760436214
 10
289.9766948259
 20
-19.2687011504
 10
289.0703443791
 20
-20.0080357815
 10
288.1546457434
 20
-20.6915458406
 10
287.2326973531
 20
-21.3169185459
 10
286.3076187898
 20
-21.8820378341
 10
285.3825402265
 20
-22.3849915205
 10
284.4605918362
 20
-22.824077769
 10
283.5448932005
 20
-23.1978108507
 10
282.6385427536
 20
-23.5049261711
 10
281.7446072987
 20
-23.7443845493
 10
280.8661116302
 20
-23.9153757339
 10
280.0060282995
 20
-24.0173211448
 10
279.1672675563
 20
-24.049875831
 10
278.3526675014
 20
-24.0129296379
 10
277.5649844837
 20
-23.9066075795
 10
276.806883773
 20
-23.7312694162
 10
276.0809305422
 20
-23.4875084367
 10
275.3895811872
 20
-23.176149451
 10
275.0585330476
 20
-22.9959689702
  0
ENDSEC
  0
SECTION
  2
OBJECTS
  0
DICTIONARY
  5
C
330
0
100
AcDbDictionary
281
     1
  3
ACAD_GROUP
350
D
  3
ACAD_LAYOUT
350
1A
  3
ACAD_MLINESTYLE
350
17
  3
ACAD_PLOTSETTINGS
350
19
  3
ACAD_PLOTSTYLENAME
350
E
  3
ACAD_SCALELIST
350
47
  3
DWGPROPS
350
123
  0
DICTIONARY
  5
D
102
{ACAD_REACTORS
330
C
102
}
330
C
100
AcDbDictionary
281
     1
  0
DICTIONARY
  5
1A
102
{ACAD_REACTORS
330
C
102
}
330
C
100
AcDbDictionary
281
     1
  3
Layout1
350
1E
  3
Layout2
350
26
  3
Model
350
22
  0
DICTIONARY
  5
17
102
{ACAD_REACTORS
330
C
102
}
330
C
100
AcDbDictionary
281
     1
  3
Standard
350
18
  0
DICTIONARY
  5
19
102
{ACAD_REACTORS
330
C
102
}
330
C
100
AcDbDictionary
281
     1
  0
ACDBDICTIONARYWDFLT
  5
E
102
{ACAD_REACTORS
330
C
102
}
330
C
100
AcDbDictionary
281
     1
  3
Normal
350
F
100
AcDbDictionaryWithDefault
340
F
  0
DICTIONARY
  5
47
102
{ACAD_REACTORS
330
C
102
}
330
C
100
AcDbDictionary
281
     1
  3
A0
350
48
  3
A1
350
49
  3
A2
350
4A
  3
A3
350
4B
  3
A4
350
4C
  3
A5
350
4D
  3
A6
350
4E
  3
A7
350
4F
  3
A8
350
50
  3
A9
350
51
  3
B0
350
52
  3
B1
350
53
  3
B2
350
54
  3
B3
350
55
  3
B4
350
56
  3
B5
350
57
  3
B6
350
58
  3
B7
350
59
  3
B8
350
5A
  3
B9
350
5B
  3
C0
350
5C
  3
C1
350
5D
  3
C2
350
5E
  3
C3
350
5F
  3
C4
350
60
  3
C5
350
61
  3
C6
350
62
  3
C7
350
63
  3
C8
350
64
  3
C9
350
65
  3
D0
350
66
  3
D1
350
67
  3
D2
350
68
  0
XRECORD
  5
123
102
{ACAD_REACTORS
330
C
102
}
330
C
100
AcDbXrecord
280
     1
  1
DWGPROPS COOKIE
  2

  3

  4

  6

  7

  8
b.kav
  9

300
=
301
=
302
=
303
=
304
=
305
=
306
=
307
=
308
=
309
=
 40
0.0
 41
2460087.372630023
 42
2460087.372630266
  1

 90
        0
  0
LAYOUT
  5
1E
102
{ACAD_REACTORS
330
1A
102
}
330
1A
100
AcDbPlotSettings
  1

  2
none_device
  4

  6

 40
0.0
 41
0.0
 42
0.0
 43
0.0
 44
0.0
 45
0.0
 46
0.0
 47
0.0
 48
0.0
 49
0.0
140
0.0
141
0.0
142
1.0
143
1.0
 70
   688
 72
     1
 73
     0
 74
     5
  7

 75
    16
147
1.0
148
0.0
149
0.0
100
AcDbLayout
  1
Layout1
 70
     1
 71
     1
 10
0.0
 20
0.0
 11
420.0
 21
297.0
 12
0.0
 22
0.0
 32
0.0
 14
1.0000000000E+20
 24
1.0000000000E+20
 34
1.0000000000E+20
 15
-1.0000000000E+20
 25
-1.0000000000E+20
 35
-1.0000000000E+20
146
0.0
 13
0.0
 23
0.0
 33
0.0
 16
1.0
 26
0.0
 36
0.0
 17
0.0
 27
1.0
 37
0.0
 76
     0
330
1B
  0
LAYOUT
  5
26
102
{ACAD_REACTORS
330
1A
102
}
330
1A
100
AcDbPlotSettings
  1

  2
none_device
  4

  6

 40
0.0
 41
0.0
 42
0.0
 43
0.0
 44
0.0
 45
0.0
 46
0.0
 47
0.0
 48
0.0
 49
0.0
140
0.0
141
0.0
142
1.0
143
1.0
 70
   688
 72
     1
 73
     0
 74
     5
  7

 75
    16
147
1.0
148
0.0
149
0.0
100
AcDbLayout
  1
Layout2
 70
     1
 71
     2
 10
0.0
 20
0.0
 11
0.0
 21
0.0
 12
0.0
 22
0.0
 32
0.0
 14
0.0
 24
0.0
 34
0.0
 15
0.0
 25
0.0
 35
0.0
146
0.0
 13
0.0
 23
0.0
 33
0.0
 16
1.0
 26
0.0
 36
0.0
 17
0.0
 27
1.0
 37
0.0
 76
     0
330
23
  0
LAYOUT
  5
22
102
{ACAD_REACTORS
330
1A
102
}
330
1A
100
AcDbPlotSettings
  1

  2
none_device
  4
Letter_(8.50_x_11.00_Inches)
  6

 40
6.35
 41
6.35
 42
6.35000508
 43
6.35000508
 44
215.9
 45
279.4
 46
0.0
 47
0.0
 48
0.0
 49
0.0
140
0.0
141
0.0
142
1.0
143
1.0
 70
  1712
 72
     1
 73
     0
 74
     0
  7

 75
     0
147
1.0
148
0.0
149
0.0
100
AcDbLayout
  1
Model
 70
     1
 71
     0
 10
0.0
 20
0.0
 11
279.4
 21
215.9
 12
0.0
 22
0.0
 32
0.0
 14
0.0
 24
0.0
 34
0.0
 15
279.4
 25
215.9
 35
0.0
146
0.0
 13
0.0
 23
0.0
 33
0.0
 16
1.0
 26
0.0
 36
0.0
 17
0.0
 27
1.0
 37
0.0
 76
     0
330
1F
331
29
  0
MLINESTYLE
  5
18
102
{ACAD_REACTORS
330
17
102
}
330
17
100
AcDbMlineStyle
  2
Standard
 70
     0
  3

 62
   256
 51
90.0
 52
90.0
 71
     2
 49
0.5
 62
   256
  6
BYLAYER
 49
-0.5
 62
   256
  6
BYLAYER
  0
ACDBPLACEHOLDER
  5
F
102
{ACAD_REACTORS
330
E
102
}
330
E
  0
SCALE
  5
48
102
{ACAD_REACTORS
330
47
102
}
330
47
100
AcDbScale
 70
     0
300
1:1
140
1.0
141
1.0
290
     1
  0
SCALE
  5
49
102
{ACAD_REACTORS
330
47
102
}
330
47
100
AcDbScale
 70
     0
300
1:2
140
1.0
141
2.0
290
     0
  0
SCALE
  5
4A
102
{ACAD_REACTORS
330
47
102
}
330
47
100
AcDbScale
 70
     0
300
1:4
140
1.0
141
4.0
290
     0
  0
SCALE
  5
4B
102
{ACAD_REACTORS
330
47
102
}
330
47
100
AcDbScale
 70
     0
300
1:5
140
1.0
141
5.0
290
     0
  0
SCALE
  5
4C
102
{ACAD_REACTORS
330
47
102
}
330
47
100
AcDbScale
 70
     0
300
1:8
140
1.0
141
8.0
290
     0
  0
SCALE
  5
4D
102
{ACAD_REACTORS
330
47
102
}
330
47
100
AcDbScale
 70
     0
300
1:10
140
1.0
141
10.0
290
     0
  0
SCALE
  5
4E
102
{ACAD_REACTORS
330
47
102
}
330
47
100
AcDbScale
 70
     0
300
1:16
140
1.0
141
16.0
290
     0
  0
SCALE
  5
4F
102
{ACAD_REACTORS
330
47
102
}
330
47
100
AcDbScale
 70
     0
300
1:20
140
1.0
141
20.0
290
     0
  0
SCALE
  5
50
102
{ACAD_REACTORS
330
47
102
}
330
47
100
AcDbScale
 70
     0
300
1:30
140
1.0
141
30.0
290
     0
  0
SCALE
  5
51
102
{ACAD_REACTORS
330
47
102
}
330
47
100
AcDbScale
 70
     0
300
1:40
140
1.0
141
40.0
290
     0
  0
SCALE
  5
52
102
{ACAD_REACTORS
330
47
102
}
330
47
100
AcDbScale
 70
     0
300
1:50
140
1.0
141
50.0
290
     0
  0
SCALE
  5
53
102
{ACAD_REACTORS
330
47
102
}
330
47
100
AcDbScale
 70
     0
300
1:100
140
1.0
141
100.0
290
     0
  0
SCALE
  5
54
102
{ACAD_REACTORS
330
47
102
}
330
47
100
AcDbScale
 70
     0
300
2:1
140
2.0
141
1.0
290
     0
  0
SCALE
  5
55
102
{ACAD_REACTORS
330
47
102
}
330
47
100
AcDbScale
 70
     0
300
4:1
140
4.0
141
1.0
290
     0
  0
SCALE
  5
56
102
{ACAD_REACTORS
330
47
102
}
330
47
100
AcDbScale
 70
     0
300
8:1
140
8.0
141
1.0
290
     0
  0
SCALE
  5
57
102
{ACAD_REACTORS
330
47
102
}
330
47
100
AcDbScale
 70
     0
300
10:1
140
10.0
141
1.0
290
     0
  0
SCALE
  5
58
102
{ACAD_REACTORS
330
47
102
}
330
47
100
AcDbScale
 70
     0
300
100:1
140
100.0
141
1.0
290
     0
  0
SCALE
  5
59
102
{ACAD_REACTORS
330
47
102
}
330
47
100
AcDbScale
 70
     0
300
1/128" = 1'-0"
140
0.0078125
141
12.0
290
     0
  0
SCALE
  5
5A
102
{ACAD_REACTORS
330
47
102
}
330
47
100
AcDbScale
 70
     0
300
1/64" = 1'-0"
140
0.015625
141
12.0
290
     0
  0
SCALE
  5
5B
102
{ACAD_REACTORS
330
47
102
}
330
47
100
AcDbScale
 70
     0
300
1/32" = 1'-0"
140
0.03125
141
12.0
290
     0
  0
SCALE
  5
5C
102
{ACAD_REACTORS
330
47
102
}
330
47
100
AcDbScale
 70
     0
300
1/16" = 1'-0"
140
0.0625
141
12.0
290
     0
  0
SCALE
  5
5D
102
{ACAD_REACTORS
330
47
102
}
330
47
100
AcDbScale
 70
     0
300
3/32" = 1'-0"
140
0.09375
141
12.0
290
     0
  0
SCALE
  5
5E
102
{ACAD_REACTORS
330
47
102
}
330
47
100
AcDbScale
 70
     0
300
1/8" = 1'-0"
140
0.125
141
12.0
290
     0
  0
SCALE
  5
5F
102
{ACAD_REACTORS
330
47
102
}
330
47
100
AcDbScale
 70
     0
300
3/16" = 1'-0"
140
0.1875
141
12.0
290
     0
  0
SCALE
  5
60
102
{ACAD_REACTORS
330
47
102
}
330
47
100
AcDbScale
 70
     0
300
1/4" = 1'-0"
140
0.25
141
12.0
290
     0
  0
SCALE
  5
61
102
{ACAD_REACTORS
330
47
102
}
330
47
100
AcDbScale
 70
     0
300
3/8" = 1'-0"
140
0.375
141
12.0
290
     0
  0
SCALE
  5
62
102
{ACAD_REACTORS
330
47
102
}
330
47
100
AcDbScale
 70
     0
300
1/2" = 1'-0"
140
0.5
141
12.0
290
     0
  0
SCALE
  5
63
102
{ACAD_REACTORS
330
47
102
}
330
47
100
AcDbScale
 70
     0
300
3/4" = 1'-0"
140
0.75
141
12.0
290
     0
  0
SCALE
  5
64
102
{ACAD_REACTORS
330
47
102
}
330
47
100
AcDbScale
 70
     0
300
1" = 1'-0"
140
1.0
141
12.0
290
     0
  0
SCALE
  5
65
102
{ACAD_REACTORS
330
47
102
}
330
47
100
AcDbScale
 70
     0
300
1-1/2" = 1'-0"
140
1.5
141
12.0
290
     0
  0
SCALE
  5
66
102
{ACAD_REACTORS
330
47
102
}
330
47
100
AcDbScale
 70
     0
300
3" = 1'-0"
140
3.0
141
12.0
290
     0
  0
SCALE
  5
67
102
{ACAD_REACTORS
330
47
102
}
330
47
100
AcDbScale
 70
     0
300
6" = 1'-0"
140
6.0
141
12.0
290
     0
  0
SCALE
  5
68
102
{ACAD_REACTORS
330
47
102
}
330
47
100
AcDbScale
 70
     0
300
1'-0" = 1'-0"
140
12.0
141
12.0
290
     0
  0
ENDSEC
  0
EOF
